ISO-10303-21;
HEADER;
FILE_DESCRIPTION (( 'STEP AP203' ),
    '1' );
FILE_NAME ('2dff.STEP',
    '2023-02-13T16:36:24',
    ( '' ),
    ( '' ),
    'SwSTEP 2.0',
    'SolidWorks 2019',
    '' );
FILE_SCHEMA (( 'CONFIG_CONTROL_DESIGN' ));
ENDSEC;

DATA;
#1 = DIRECTION ( 'NONE',  ( 1.000000000000000000, 0.000000000000000000, 0.000000000000000000 ) ) ;
#2 = APPLICATION_CONTEXT ( 'configuration controlled 3d designs of mechanical parts and assemblies' ) ;
#3 = CLOSED_SHELL ( 'NONE', ( #45, #25, #31, #167, #191, #197, #185 ) ) ;
#4 = PERSON_AND_ORGANIZATION ( #5, #172 ) ;
#5 = PERSON ( 'NEURÈENÝ', 'NEURÈENÝ', 'NEURÈENÝ', ('NEURÈENÝ'), ('NEURÈENÝ'), ('NEURÈENÝ') ) ;
#6 = CC_DESIGN_PERSON_AND_ORGANIZATION_ASSIGNMENT ( #51, #138, ( #11 ) ) ;
#7 = DATE_TIME_ROLE ( 'creation_date' ) ;
#8 = DATE_TIME_ROLE ( 'classification_date' ) ;
#9 = CALENDAR_DATE ( 2023, 13, 2 ) ;
#10 = PRODUCT ( '2dff', '2dff', '', ( #132 ) ) ;
#11 = PRODUCT_DEFINITION_FORMATION_WITH_SPECIFIED_SOURCE ( 'LIBOVOLNÝ', '', #10, .NOT_KNOWN. ) ;
#12 = VERTEX_POINT ( 'NONE', #216 ) ;
#13 = ORIENTED_EDGE ( 'NONE', *, *, #208, .T. ) ;
#14 = CARTESIAN_POINT ( 'NONE',  ( -4.000000000000000000, 0.000000000000000000, 4.000000000000000000 ) ) ;
#15 = CYLINDRICAL_SURFACE ( 'NONE', #44, 4.000000000000000000 ) ;
#16 = LINE ( 'NONE', #14, #155 ) ;
#17 = DIRECTION ( 'NONE',  ( 0.000000000000000000, 0.000000000000000000, 1.000000000000000000 ) ) ;
#18 = APPROVAL_PERSON_ORGANIZATION ( #72, #175, #247 ) ;
#19 = DIRECTION ( 'NONE',  ( -0.000000000000000000, -0.000000000000000000, -1.000000000000000000 ) ) ;
#20 = AXIS2_PLACEMENT_3D ( 'NONE', #162, #146, #63 ) ;
#21 = DIRECTION ( 'NONE',  ( 0.000000000000000000, 0.000000000000000000, 1.000000000000000000 ) ) ;
#22 = CARTESIAN_POINT ( 'NONE',  ( 4.000000000000000000, 4.898587196589412829E-16, 0.000000000000000000 ) ) ;
#23 = AXIS2_PLACEMENT_3D ( 'NONE', #83, #17, #121 ) ;
#24 = CALENDAR_DATE ( 2023, 13, 2 ) ;
#25 = ADVANCED_FACE ( 'NONE', ( #37 ), #144, .T. ) ;
#26 = CC_DESIGN_APPROVAL ( #175, ( #245 ) ) ;
#27 = ORIENTED_EDGE ( 'NONE', *, *, #205, .T. ) ;
#28 = CIRCLE ( 'NONE', #23, 4.000000000000000000 ) ;
#29 = VERTEX_POINT ( 'NONE', #240 ) ;
#30 = COORDINATED_UNIVERSAL_TIME_OFFSET ( 1, 0, .AHEAD. ) ;
#31 = ADVANCED_FACE ( 'NONE', ( #218 ), #15, .T. ) ;
#32 = EDGE_LOOP ( 'NONE', ( #57, #34 ) ) ;
#33 = CC_DESIGN_DATE_AND_TIME_ASSIGNMENT ( #113, #7, ( #158 ) ) ;
#34 = ORIENTED_EDGE ( 'NONE', *, *, #78, .F. ) ;
#35 = EDGE_CURVE ( 'NONE', #119, #171, #28, .T. ) ;
#36 = ORIENTED_EDGE ( 'NONE', *, *, #147, .T. ) ;
#37 = FACE_OUTER_BOUND ( 'NONE', #100, .T. ) ;
#38 = AXIS2_PLACEMENT_3D ( 'NONE', #159, #200, #123 ) ;
#39 = DIRECTION ( 'NONE',  ( 1.000000000000000000, 0.000000000000000000, 0.000000000000000000 ) ) ;
#40 = PLANE ( 'NONE',  #131 ) ;
#41 = DIRECTION ( 'NONE',  ( -1.000000000000000000, 0.000000000000000000, 0.000000000000000000 ) ) ;
#42 = APPROVAL_PERSON_ORGANIZATION ( #4, #56, #89 ) ;
#43 = CARTESIAN_POINT ( 'NONE',  ( 2.000000000000000000, 2.449293598294706414E-16, 400.0000000000000000 ) ) ;
#44 = AXIS2_PLACEMENT_3D ( 'NONE', #161, #255, #41 ) ;
#45 = ADVANCED_FACE ( 'NONE', ( #236 ), #85, .T. ) ;
#46 = DIRECTION ( 'NONE',  ( 0.000000000000000000, 0.000000000000000000, 1.000000000000000000 ) ) ;
#47 = CALENDAR_DATE ( 2023, 13, 2 ) ;
#48 = COORDINATED_UNIVERSAL_TIME_OFFSET ( 1, 0, .AHEAD. ) ;
#49 = AXIS2_PLACEMENT_3D ( 'NONE', #253, #160, #39 ) ;
#50 = APPROVAL_STATUS ( 'not_yet_approved' ) ;
#51 = PERSON_AND_ORGANIZATION ( #5, #172 ) ;
#52 = EDGE_LOOP ( 'NONE', ( #73, #137 ) ) ;
#53 = CIRCLE ( 'NONE', #38, 4.000000000000000000 ) ;
#54 = APPROVAL_STATUS ( 'not_yet_approved' ) ;
#55 = EDGE_LOOP ( 'NONE', ( #58, #233, #77, #139 ) ) ;
#56 = APPROVAL ( #150, 'NEURÈENÝ' ) ;
#57 = ORIENTED_EDGE ( 'NONE', *, *, #106, .F. ) ;
#58 = ORIENTED_EDGE ( 'NONE', *, *, #181, .F. ) ;
#59 = CARTESIAN_POINT ( 'NONE',  ( 0.000000000000000000, 0.000000000000000000, 4.000000000000000000 ) ) ;
#60 = FACE_OUTER_BOUND ( 'NONE', #235, .T. ) ;
#61 = APPLICATION_CONTEXT ( 'configuration controlled 3d designs of mechanical parts and assemblies' ) ;
#62 = CARTESIAN_POINT ( 'NONE',  ( -4.000000000000000000, 0.000000000000000000, 4.000000000000000000 ) ) ;
#63 = DIRECTION ( 'NONE',  ( -1.000000000000000000, 0.000000000000000000, 0.000000000000000000 ) ) ;
#64 = DIRECTION ( 'NONE',  ( 1.000000000000000000, 0.000000000000000000, 0.000000000000000000 ) ) ;
#65 = CIRCLE ( 'NONE', #115, 2.000000000000000000 ) ;
#66 = FACE_OUTER_BOUND ( 'NONE', #249, .T. ) ;
#67 = CC_DESIGN_PERSON_AND_ORGANIZATION_ASSIGNMENT ( #76, #189, ( #11 ) ) ;
#68 = APPROVAL_DATE_TIME ( #130, #56 ) ;
#69 = CIRCLE ( 'NONE', #74, 2.000000000000000000 ) ;
#70 = CC_DESIGN_PERSON_AND_ORGANIZATION_ASSIGNMENT ( #227, #224, ( #10 ) ) ;
#71 = APPROVAL_ROLE ( '' ) ;
#72 = PERSON_AND_ORGANIZATION ( #5, #172 ) ;
#73 = ORIENTED_EDGE ( 'NONE', *, *, #182, .T. ) ;
#74 = AXIS2_PLACEMENT_3D ( 'NONE', #206, #46, #188 ) ;
#75 = APPROVAL_DATE_TIME ( #134, #175 ) ;
#76 = PERSON_AND_ORGANIZATION ( #5, #172 ) ;
#77 = ORIENTED_EDGE ( 'NONE', *, *, #149, .T. ) ;
#78 = EDGE_CURVE ( 'NONE', #29, #212, #80, .T. ) ;
#79 = ORIENTED_EDGE ( 'NONE', *, *, #78, .T. ) ;
#80 = CIRCLE ( 'NONE', #122, 2.000000000000000000 ) ;
#81 = DIRECTION ( 'NONE',  ( 1.000000000000000000, 0.000000000000000000, -0.000000000000000000 ) ) ;
#82 = CARTESIAN_POINT ( 'NONE',  ( -2.000000000000000000, 0.000000000000000000, 400.0000000000000000 ) ) ;
#83 = CARTESIAN_POINT ( 'NONE',  ( 0.000000000000000000, 0.000000000000000000, 4.000000000000000000 ) ) ;
#84 = CC_DESIGN_APPROVAL ( #56, ( #158 ) ) ;
#85 = CYLINDRICAL_SURFACE ( 'NONE', #20, 2.000000000000000000 ) ;
#86 = DIRECTION ( 'NONE',  ( 0.000000000000000000, 0.000000000000000000, 1.000000000000000000 ) ) ;
#87 = DIRECTION ( 'NONE',  ( 0.000000000000000000, 0.000000000000000000, 1.000000000000000000 ) ) ;
#88 =( GEOMETRIC_REPRESENTATION_CONTEXT ( 3 ) GLOBAL_UNCERTAINTY_ASSIGNED_CONTEXT ( ( #157 ) ) GLOBAL_UNIT_ASSIGNED_CONTEXT ( ( #90, #112, #164 ) ) REPRESENTATION_CONTEXT ( 'NONE', 'WORKASPACE' ) );
#89 = APPROVAL_ROLE ( '' ) ;
#90 =( LENGTH_UNIT ( ) NAMED_UNIT ( * ) SI_UNIT ( .MILLI., .METRE. ) );
#91 = AXIS2_PLACEMENT_3D ( 'NONE', #108, #19, #239 ) ;
#92 = DATE_AND_TIME ( #169, #242 ) ;
#93 = EDGE_LOOP ( 'NONE', ( #190, #198, #79, #156 ) ) ;
#94 = DESIGN_CONTEXT ( 'detailed design', #61, 'design' ) ;
#95 = ADVANCED_BREP_SHAPE_REPRESENTATION ( '2dff', ( #234, #125 ), #88 ) ;
#96 = PERSON_AND_ORGANIZATION ( #5, #172 ) ;
#97 = PRODUCT_RELATED_PRODUCT_CATEGORY ( 'detail', '', ( #10 ) ) ;
#98 = ORIENTED_EDGE ( 'NONE', *, *, #35, .F. ) ;
#99 = LOCAL_TIME ( 17, 36, 24.00000000000000000, #48 ) ;
#100 = EDGE_LOOP ( 'NONE', ( #98, #192, #36, #210 ) ) ;
#101 = EDGE_CURVE ( 'NONE', #135, #212, #194, .T. ) ;
#102 = EDGE_LOOP ( 'NONE', ( #207, #251 ) ) ;
#103 = DIRECTION ( 'NONE',  ( -0.000000000000000000, -0.000000000000000000, -1.000000000000000000 ) ) ;
#104 = VECTOR ( 'NONE', #103, 1000.000000000000000 ) ;
#105 = DIRECTION ( 'NONE',  ( 1.000000000000000000, 0.000000000000000000, 0.000000000000000000 ) ) ;
#106 = EDGE_CURVE ( 'NONE', #212, #29, #174, .T. ) ;
#107 = DIRECTION ( 'NONE',  ( -0.000000000000000000, -0.000000000000000000, -1.000000000000000000 ) ) ;
#108 = CARTESIAN_POINT ( 'NONE',  ( 0.000000000000000000, 0.000000000000000000, 4.000000000000000000 ) ) ;
#109 = FACE_BOUND ( 'NONE', #32, .T. ) ;
#110 = DIRECTION ( 'NONE',  ( -1.000000000000000000, 0.000000000000000000, 0.000000000000000000 ) ) ;
#111 = AXIS2_PLACEMENT_3D ( 'NONE', #59, #86, #145 ) ;
#112 =( NAMED_UNIT ( * ) PLANE_ANGLE_UNIT ( ) SI_UNIT ( $, .RADIAN. ) );
#113 = DATE_AND_TIME ( #24, #99 ) ;
#114 = DIRECTION ( 'NONE',  ( 1.000000000000000000, 0.000000000000000000, -0.000000000000000000 ) ) ;
#115 = AXIS2_PLACEMENT_3D ( 'NONE', #222, #129, #1 ) ;
#116 = CC_DESIGN_PERSON_AND_ORGANIZATION_ASSIGNMENT ( #151, #226, ( #158 ) ) ;
#117 = ORIENTED_EDGE ( 'NONE', *, *, #208, .F. ) ;
#118 = ORIENTED_EDGE ( 'NONE', *, *, #101, .T. ) ;
#119 = VERTEX_POINT ( 'NONE', #178 ) ;
#120 = DIRECTION ( 'NONE',  ( 0.000000000000000000, 0.000000000000000000, 1.000000000000000000 ) ) ;
#121 = DIRECTION ( 'NONE',  ( 1.000000000000000000, 0.000000000000000000, 0.000000000000000000 ) ) ;
#122 = AXIS2_PLACEMENT_3D ( 'NONE', #196, #195, #105 ) ;
#123 = DIRECTION ( 'NONE',  ( 1.000000000000000000, 0.000000000000000000, 0.000000000000000000 ) ) ;
#124 = LINE ( 'NONE', #215, #225 ) ;
#125 = AXIS2_PLACEMENT_3D ( 'NONE', #202, #87, #165 ) ;
#126 = PLANE ( 'NONE',  #193 ) ;
#127 = LOCAL_TIME ( 17, 36, 24.00000000000000000, #244 ) ;
#128 = AXIS2_PLACEMENT_3D ( 'NONE', #183, #179, #64 ) ;
#129 = DIRECTION ( 'NONE',  ( 0.000000000000000000, 0.000000000000000000, 1.000000000000000000 ) ) ;
#130 = DATE_AND_TIME ( #47, #127 ) ;
#131 = AXIS2_PLACEMENT_3D ( 'NONE', #220, #21, #114 ) ;
#132 = MECHANICAL_CONTEXT ( 'NONE', #2, 'mechanical' ) ;
#133 = CALENDAR_DATE ( 2023, 13, 2 ) ;
#134 = DATE_AND_TIME ( #9, #136 ) ;
#135 = VERTEX_POINT ( 'NONE', #82 ) ;
#136 = LOCAL_TIME ( 17, 36, 24.00000000000000000, #30 ) ;
#137 = ORIENTED_EDGE ( 'NONE', *, *, #35, .T. ) ;
#138 = PERSON_AND_ORGANIZATION_ROLE ( 'design_supplier' ) ;
#139 = ORIENTED_EDGE ( 'NONE', *, *, #177, .T. ) ;
#140 = ORIENTED_EDGE ( 'NONE', *, *, #106, .T. ) ;
#141 = DIRECTION ( 'NONE',  ( 1.000000000000000000, 0.000000000000000000, -0.000000000000000000 ) ) ;
#142 = FACE_OUTER_BOUND ( 'NONE', #102, .T. ) ;
#143 = APPROVAL ( #50, 'NEURÈENÝ' ) ;
#144 = CYLINDRICAL_SURFACE ( 'NONE', #91, 4.000000000000000000 ) ;
#145 = DIRECTION ( 'NONE',  ( 1.000000000000000000, 0.000000000000000000, 0.000000000000000000 ) ) ;
#146 = DIRECTION ( 'NONE',  ( -0.000000000000000000, -0.000000000000000000, -1.000000000000000000 ) ) ;
#147 = EDGE_CURVE ( 'NONE', #214, #232, #209, .T. ) ;
#148 = DIRECTION ( 'NONE',  ( -0.000000000000000000, -0.000000000000000000, -1.000000000000000000 ) ) ;
#149 = EDGE_CURVE ( 'NONE', #171, #232, #16, .T. ) ;
#150 = APPROVAL_STATUS ( 'not_yet_approved' ) ;
#151 = PERSON_AND_ORGANIZATION ( #5, #172 ) ;
#152 = COORDINATED_UNIVERSAL_TIME_OFFSET ( 1, 0, .AHEAD. ) ;
#153 = SHAPE_DEFINITION_REPRESENTATION ( #231, #95 ) ;
#154 = CC_DESIGN_DATE_AND_TIME_ASSIGNMENT ( #92, #8, ( #245 ) ) ;
#155 = VECTOR ( 'NONE', #252, 1000.000000000000000 ) ;
#156 = ORIENTED_EDGE ( 'NONE', *, *, #101, .F. ) ;
#157 = UNCERTAINTY_MEASURE_WITH_UNIT (LENGTH_MEASURE( 1.000000000000000082E-05 ), #90, 'distance_accuracy_value', 'NONE');
#158 = PRODUCT_DEFINITION ( 'NEZNÁMÝ', '', #11, #94 ) ;
#159 = CARTESIAN_POINT ( 'NONE',  ( 0.000000000000000000, 0.000000000000000000, 0.000000000000000000 ) ) ;
#160 = DIRECTION ( 'NONE',  ( 0.000000000000000000, 0.000000000000000000, 1.000000000000000000 ) ) ;
#161 = CARTESIAN_POINT ( 'NONE',  ( 0.000000000000000000, 0.000000000000000000, 4.000000000000000000 ) ) ;
#162 = CARTESIAN_POINT ( 'NONE',  ( 0.000000000000000000, 0.000000000000000000, 400.0000000000000000 ) ) ;
#163 = CARTESIAN_POINT ( 'NONE',  ( 0.000000000000000000, 0.000000000000000000, 400.0000000000000000 ) ) ;
#164 =( NAMED_UNIT ( * ) SI_UNIT ( $, .STERADIAN. ) SOLID_ANGLE_UNIT ( ) );
#165 = DIRECTION ( 'NONE',  ( 1.000000000000000000, 0.000000000000000000, 0.000000000000000000 ) ) ;
#166 = CYLINDRICAL_SURFACE ( 'NONE', #203, 2.000000000000000000 ) ;
#167 = ADVANCED_FACE ( 'NONE', ( #109, #254 ), #126, .T. ) ;
#168 = CARTESIAN_POINT ( 'NONE',  ( 0.000000000000000000, 0.000000000000000000, 400.0000000000000000 ) ) ;
#169 = CALENDAR_DATE ( 2023, 13, 2 ) ;
#170 = COORDINATED_UNIVERSAL_TIME_OFFSET ( 1, 0, .AHEAD. ) ;
#171 = VERTEX_POINT ( 'NONE', #62 ) ;
#172 = ORGANIZATION ( 'NEURÈENÝ', 'NEURÈENÝ', '' ) ;
#173 = APPROVAL_DATE_TIME ( #248, #143 ) ;
#174 = CIRCLE ( 'NONE', #128, 2.000000000000000000 ) ;
#175 = APPROVAL ( #54, 'NEURÈENÝ' ) ;
#176 = CIRCLE ( 'NONE', #111, 4.000000000000000000 ) ;
#177 = EDGE_CURVE ( 'NONE', #232, #214, #53, .T. ) ;
#178 = CARTESIAN_POINT ( 'NONE',  ( 4.000000000000000000, 4.898587196589412829E-16, 4.000000000000000000 ) ) ;
#179 = DIRECTION ( 'NONE',  ( 0.000000000000000000, 0.000000000000000000, 1.000000000000000000 ) ) ;
#180 = DIRECTION ( 'NONE',  ( 0.000000000000000000, 0.000000000000000000, 1.000000000000000000 ) ) ;
#181 = EDGE_CURVE ( 'NONE', #119, #214, #124, .T. ) ;
#182 = EDGE_CURVE ( 'NONE', #171, #119, #176, .T. ) ;
#183 = CARTESIAN_POINT ( 'NONE',  ( 0.000000000000000000, 0.000000000000000000, 4.000000000000000000 ) ) ;
#184 = CARTESIAN_POINT ( 'NONE',  ( -2.000000000000000000, 0.000000000000000000, 400.0000000000000000 ) ) ;
#185 = ADVANCED_FACE ( 'NONE', ( #60 ), #219, .T. ) ;
#186 = CARTESIAN_POINT ( 'NONE',  ( -2.000000000000000000, 0.000000000000000000, 4.000000000000000000 ) ) ;
#187 = APPLICATION_PROTOCOL_DEFINITION ( 'international standard', 'config_control_design', 1994, #2 ) ;
#188 = DIRECTION ( 'NONE',  ( 1.000000000000000000, 0.000000000000000000, 0.000000000000000000 ) ) ;
#189 = PERSON_AND_ORGANIZATION_ROLE ( 'creator' ) ;
#190 = ORIENTED_EDGE ( 'NONE', *, *, #205, .F. ) ;
#191 = ADVANCED_FACE ( 'NONE', ( #142 ), #40, .F. ) ;
#192 = ORIENTED_EDGE ( 'NONE', *, *, #181, .T. ) ;
#193 = AXIS2_PLACEMENT_3D ( 'NONE', #237, #120, #81 ) ;
#194 = LINE ( 'NONE', #184, #104 ) ;
#195 = DIRECTION ( 'NONE',  ( 0.000000000000000000, 0.000000000000000000, 1.000000000000000000 ) ) ;
#196 = CARTESIAN_POINT ( 'NONE',  ( 0.000000000000000000, 0.000000000000000000, 4.000000000000000000 ) ) ;
#197 = ADVANCED_FACE ( 'NONE', ( #66 ), #166, .T. ) ;
#198 = ORIENTED_EDGE ( 'NONE', *, *, #201, .T. ) ;
#199 = CC_DESIGN_APPROVAL ( #143, ( #11 ) ) ;
#200 = DIRECTION ( 'NONE',  ( 0.000000000000000000, 0.000000000000000000, 1.000000000000000000 ) ) ;
#201 = EDGE_CURVE ( 'NONE', #12, #29, #223, .T. ) ;
#202 = CARTESIAN_POINT ( 'NONE',  ( 0.000000000000000000, 0.000000000000000000, 0.000000000000000000 ) ) ;
#203 = AXIS2_PLACEMENT_3D ( 'NONE', #168, #148, #110 ) ;
#204 = APPLICATION_PROTOCOL_DEFINITION ( 'international standard', 'config_control_design', 1994, #61 ) ;
#205 = EDGE_CURVE ( 'NONE', #12, #135, #69, .T. ) ;
#206 = CARTESIAN_POINT ( 'NONE',  ( 0.000000000000000000, 0.000000000000000000, 400.0000000000000000 ) ) ;
#207 = ORIENTED_EDGE ( 'NONE', *, *, #177, .F. ) ;
#208 = EDGE_CURVE ( 'NONE', #135, #12, #65, .T. ) ;
#209 = CIRCLE ( 'NONE', #49, 4.000000000000000000 ) ;
#210 = ORIENTED_EDGE ( 'NONE', *, *, #149, .F. ) ;
#211 = ORIENTED_EDGE ( 'NONE', *, *, #201, .F. ) ;
#212 = VERTEX_POINT ( 'NONE', #186 ) ;
#213 = AXIS2_PLACEMENT_3D ( 'NONE', #163, #180, #141 ) ;
#214 = VERTEX_POINT ( 'NONE', #22 ) ;
#215 = CARTESIAN_POINT ( 'NONE',  ( 4.000000000000000000, 4.898587196589412829E-16, 4.000000000000000000 ) ) ;
#216 = CARTESIAN_POINT ( 'NONE',  ( 2.000000000000000000, 2.449293598294706414E-16, 400.0000000000000000 ) ) ;
#217 = LOCAL_TIME ( 17, 36, 24.00000000000000000, #152 ) ;
#218 = FACE_OUTER_BOUND ( 'NONE', #55, .T. ) ;
#219 = PLANE ( 'NONE',  #213 ) ;
#220 = CARTESIAN_POINT ( 'NONE',  ( 0.000000000000000000, 0.000000000000000000, 0.000000000000000000 ) ) ;
#221 = APPROVAL_PERSON_ORGANIZATION ( #246, #143, #71 ) ;
#222 = CARTESIAN_POINT ( 'NONE',  ( 0.000000000000000000, 0.000000000000000000, 400.0000000000000000 ) ) ;
#223 = LINE ( 'NONE', #43, #250 ) ;
#224 = PERSON_AND_ORGANIZATION_ROLE ( 'design_owner' ) ;
#225 = VECTOR ( 'NONE', #107, 1000.000000000000000 ) ;
#226 = PERSON_AND_ORGANIZATION_ROLE ( 'creator' ) ;
#227 = PERSON_AND_ORGANIZATION ( #5, #172 ) ;
#228 = PERSON_AND_ORGANIZATION_ROLE ( 'classification_officer' ) ;
#229 = CC_DESIGN_PERSON_AND_ORGANIZATION_ASSIGNMENT ( #96, #228, ( #245 ) ) ;
#230 = SECURITY_CLASSIFICATION_LEVEL ( 'unclassified' ) ;
#231 = PRODUCT_DEFINITION_SHAPE ( 'NONE', 'NONE',  #158 ) ;
#232 = VERTEX_POINT ( 'NONE', #241 ) ;
#233 = ORIENTED_EDGE ( 'NONE', *, *, #182, .F. ) ;
#234 = MANIFOLD_SOLID_BREP ( 'Pøidat vysunutím3', #3 ) ;
#235 = EDGE_LOOP ( 'NONE', ( #13, #27 ) ) ;
#236 = FACE_OUTER_BOUND ( 'NONE', #93, .T. ) ;
#237 = CARTESIAN_POINT ( 'NONE',  ( 0.000000000000000000, 0.000000000000000000, 4.000000000000000000 ) ) ;
#238 = CC_DESIGN_SECURITY_CLASSIFICATION ( #245, ( #11 ) ) ;
#239 = DIRECTION ( 'NONE',  ( -1.000000000000000000, 0.000000000000000000, 0.000000000000000000 ) ) ;
#240 = CARTESIAN_POINT ( 'NONE',  ( 2.000000000000000000, 2.449293598294706414E-16, 4.000000000000000000 ) ) ;
#241 = CARTESIAN_POINT ( 'NONE',  ( -4.000000000000000000, 0.000000000000000000, 0.000000000000000000 ) ) ;
#242 = LOCAL_TIME ( 17, 36, 24.00000000000000000, #170 ) ;
#243 = DIRECTION ( 'NONE',  ( -0.000000000000000000, -0.000000000000000000, -1.000000000000000000 ) ) ;
#244 = COORDINATED_UNIVERSAL_TIME_OFFSET ( 1, 0, .AHEAD. ) ;
#245 = SECURITY_CLASSIFICATION ( '', '', #230 ) ;
#246 = PERSON_AND_ORGANIZATION ( #5, #172 ) ;
#247 = APPROVAL_ROLE ( '' ) ;
#248 = DATE_AND_TIME ( #133, #217 ) ;
#249 = EDGE_LOOP ( 'NONE', ( #211, #117, #118, #140 ) ) ;
#250 = VECTOR ( 'NONE', #243, 1000.000000000000000 ) ;
#251 = ORIENTED_EDGE ( 'NONE', *, *, #147, .F. ) ;
#252 = DIRECTION ( 'NONE',  ( -0.000000000000000000, -0.000000000000000000, -1.000000000000000000 ) ) ;
#253 = CARTESIAN_POINT ( 'NONE',  ( 0.000000000000000000, 0.000000000000000000, 0.000000000000000000 ) ) ;
#254 = FACE_OUTER_BOUND ( 'NONE', #52, .T. ) ;
#255 = DIRECTION ( 'NONE',  ( -0.000000000000000000, -0.000000000000000000, -1.000000000000000000 ) ) ;
ENDSEC;
END-ISO-10303-21;
