ISO-10303-21;
HEADER;
FILE_DESCRIPTION (( 'STEP AP203' ),
    '1' );
FILE_NAME ('f044.STEP',
    '2023-02-13T16:18:18',
    ( '' ),
    ( '' ),
    'SwSTEP 2.0',
    'SolidWorks 2019',
    '' );
FILE_SCHEMA (( 'CONFIG_CONTROL_DESIGN' ));
ENDSEC;

DATA;
#1 = VERTEX_POINT ( 'NONE', #133 ) ;
#2 = DIRECTION ( 'NONE',  ( 0.000000000000000000, 0.000000000000000000, 1.000000000000000000 ) ) ;
#3 = CC_DESIGN_DATE_AND_TIME_ASSIGNMENT ( #192, #147, ( #79 ) ) ;
#4 = DIRECTION ( 'NONE',  ( -0.000000000000000000, -0.000000000000000000, -1.000000000000000000 ) ) ;
#5 = CARTESIAN_POINT ( 'NONE',  ( 0.000000000000000000, 0.000000000000000000, 0.000000000000000000 ) ) ;
#6 = SECURITY_CLASSIFICATION ( '', '', #234 ) ;
#7 = FACE_OUTER_BOUND ( 'NONE', #223, .T. ) ;
#8 = EDGE_CURVE ( 'NONE', #64, #91, #80, .T. ) ;
#9 = CARTESIAN_POINT ( 'NONE',  ( 0.000000000000000000, 0.000000000000000000, 160.0000000000000000 ) ) ;
#10 =( NAMED_UNIT ( * ) PLANE_ANGLE_UNIT ( ) SI_UNIT ( $, .RADIAN. ) );
#11 = UNCERTAINTY_MEASURE_WITH_UNIT (LENGTH_MEASURE( 1.000000000000000082E-05 ), #139, 'distance_accuracy_value', 'NONE');
#12 = PERSON_AND_ORGANIZATION_ROLE ( 'classification_officer' ) ;
#13 = APPROVAL_ROLE ( '' ) ;
#14 = PRODUCT ( 'f044', 'f044', '', ( #203 ) ) ;
#15 = APPROVAL_DATE_TIME ( #34, #215 ) ;
#16 = CARTESIAN_POINT ( 'NONE',  ( -2.500000000000000000, 0.000000000000000000, 5.000000000000000000 ) ) ;
#17 = LINE ( 'NONE', #96, #198 ) ;
#18 = LINE ( 'NONE', #35, #216 ) ;
#19 = DIRECTION ( 'NONE',  ( 0.000000000000000000, 0.000000000000000000, 1.000000000000000000 ) ) ;
#20 = CARTESIAN_POINT ( 'NONE',  ( 5.000000000000000000, 6.123233995736766282E-16, 5.000000000000000000 ) ) ;
#21 = PERSON_AND_ORGANIZATION_ROLE ( 'design_owner' ) ;
#22 = COORDINATED_UNIVERSAL_TIME_OFFSET ( 1, 0, .AHEAD. ) ;
#23 = DIRECTION ( 'NONE',  ( 0.000000000000000000, 0.000000000000000000, 1.000000000000000000 ) ) ;
#24 = EDGE_CURVE ( 'NONE', #56, #91, #158, .T. ) ;
#25 = ADVANCED_BREP_SHAPE_REPRESENTATION ( 'f044', ( #229, #32 ), #28 ) ;
#26 = CC_DESIGN_DATE_AND_TIME_ASSIGNMENT ( #126, #235, ( #6 ) ) ;
#27 = PLANE ( 'NONE',  #211 ) ;
#28 =( GEOMETRIC_REPRESENTATION_CONTEXT ( 3 ) GLOBAL_UNCERTAINTY_ASSIGNED_CONTEXT ( ( #11 ) ) GLOBAL_UNIT_ASSIGNED_CONTEXT ( ( #139, #10, #124 ) ) REPRESENTATION_CONTEXT ( 'NONE', 'WORKASPACE' ) );
#29 = PERSON_AND_ORGANIZATION_ROLE ( 'creator' ) ;
#30 = CALENDAR_DATE ( 2023, 13, 2 ) ;
#31 = ORIENTED_EDGE ( 'NONE', *, *, #54, .T. ) ;
#32 = AXIS2_PLACEMENT_3D ( 'NONE', #84, #106, #88 ) ;
#33 = ORIENTED_EDGE ( 'NONE', *, *, #98, .F. ) ;
#34 = DATE_AND_TIME ( #217, #204 ) ;
#35 = CARTESIAN_POINT ( 'NONE',  ( 2.500000000000000000, 3.061616997868383141E-16, 160.0000000000000000 ) ) ;
#36 = CC_DESIGN_APPROVAL ( #215, ( #6 ) ) ;
#37 = CARTESIAN_POINT ( 'NONE',  ( 0.000000000000000000, 0.000000000000000000, 0.000000000000000000 ) ) ;
#38 = FACE_OUTER_BOUND ( 'NONE', #148, .T. ) ;
#39 = APPROVAL ( #179, 'NEURÈENÝ' ) ;
#40 = DIRECTION ( 'NONE',  ( 1.000000000000000000, 0.000000000000000000, 0.000000000000000000 ) ) ;
#41 = AXIS2_PLACEMENT_3D ( 'NONE', #208, #86, #226 ) ;
#42 = VERTEX_POINT ( 'NONE', #78 ) ;
#43 = PRODUCT_DEFINITION_SHAPE ( 'NONE', 'NONE',  #79 ) ;
#44 = DIRECTION ( 'NONE',  ( 1.000000000000000000, 0.000000000000000000, 0.000000000000000000 ) ) ;
#45 = DIRECTION ( 'NONE',  ( 1.000000000000000000, 0.000000000000000000, -0.000000000000000000 ) ) ;
#46 = PERSON_AND_ORGANIZATION ( #75, #170 ) ;
#47 = DIRECTION ( 'NONE',  ( 1.000000000000000000, 0.000000000000000000, 0.000000000000000000 ) ) ;
#48 = PERSON_AND_ORGANIZATION ( #75, #170 ) ;
#49 = ORIENTED_EDGE ( 'NONE', *, *, #142, .T. ) ;
#50 = CALENDAR_DATE ( 2023, 13, 2 ) ;
#51 = EDGE_LOOP ( 'NONE', ( #169, #31, #167, #57 ) ) ;
#52 = AXIS2_PLACEMENT_3D ( 'NONE', #136, #152, #118 ) ;
#53 = APPROVAL_ROLE ( '' ) ;
#54 = EDGE_CURVE ( 'NONE', #171, #56, #220, .T. ) ;
#55 = EDGE_LOOP ( 'NONE', ( #93, #194, #76, #236 ) ) ;
#56 = VERTEX_POINT ( 'NONE', #255 ) ;
#57 = ORIENTED_EDGE ( 'NONE', *, *, #8, .F. ) ;
#58 = ADVANCED_FACE ( 'NONE', ( #218, #151 ), #134, .T. ) ;
#59 = EDGE_LOOP ( 'NONE', ( #150, #232 ) ) ;
#60 = LOCAL_TIME ( 17, 18, 18.00000000000000000, #213 ) ;
#61 = DIRECTION ( 'NONE',  ( -1.000000000000000000, 0.000000000000000000, 0.000000000000000000 ) ) ;
#62 = AXIS2_PLACEMENT_3D ( 'NONE', #37, #99, #202 ) ;
#63 = CARTESIAN_POINT ( 'NONE',  ( -5.000000000000000000, 0.000000000000000000, 0.000000000000000000 ) ) ;
#64 = VERTEX_POINT ( 'NONE', #153 ) ;
#65 = APPROVAL_PERSON_ORGANIZATION ( #161, #39, #85 ) ;
#66 = DIRECTION ( 'NONE',  ( 0.000000000000000000, 0.000000000000000000, 1.000000000000000000 ) ) ;
#67 = CARTESIAN_POINT ( 'NONE',  ( 0.000000000000000000, 0.000000000000000000, 5.000000000000000000 ) ) ;
#68 = DIRECTION ( 'NONE',  ( 1.000000000000000000, 0.000000000000000000, 0.000000000000000000 ) ) ;
#69 = DIRECTION ( 'NONE',  ( -0.000000000000000000, -0.000000000000000000, -1.000000000000000000 ) ) ;
#70 = CIRCLE ( 'NONE', #138, 2.500000000000000000 ) ;
#71 = EDGE_LOOP ( 'NONE', ( #131, #187 ) ) ;
#72 = ADVANCED_FACE ( 'NONE', ( #239 ), #197, .T. ) ;
#73 = EDGE_LOOP ( 'NONE', ( #129, #172 ) ) ;
#74 = CIRCLE ( 'NONE', #164, 5.000000000000000000 ) ;
#75 = PERSON ( 'NEURÈENÝ', 'NEURÈENÝ', 'NEURÈENÝ', ('NEURÈENÝ'), ('NEURÈENÝ'), ('NEURÈENÝ') ) ;
#76 = ORIENTED_EDGE ( 'NONE', *, *, #225, .T. ) ;
#77 = EDGE_CURVE ( 'NONE', #110, #154, #184, .T. ) ;
#78 = CARTESIAN_POINT ( 'NONE',  ( 2.500000000000000000, 3.061616997868383141E-16, 160.0000000000000000 ) ) ;
#79 = PRODUCT_DEFINITION ( 'NEZNÁMÝ', '', #81, #253 ) ;
#80 = LINE ( 'NONE', #137, #177 ) ;
#81 = PRODUCT_DEFINITION_FORMATION_WITH_SPECIFIED_SOURCE ( 'LIBOVOLNÝ', '', #14, .NOT_KNOWN. ) ;
#82 = DIRECTION ( 'NONE',  ( -0.000000000000000000, -0.000000000000000000, -1.000000000000000000 ) ) ;
#83 = DIRECTION ( 'NONE',  ( 0.000000000000000000, 0.000000000000000000, 1.000000000000000000 ) ) ;
#84 = CARTESIAN_POINT ( 'NONE',  ( 0.000000000000000000, 0.000000000000000000, 0.000000000000000000 ) ) ;
#85 = APPROVAL_ROLE ( '' ) ;
#86 = DIRECTION ( 'NONE',  ( -0.000000000000000000, -0.000000000000000000, -1.000000000000000000 ) ) ;
#87 = CC_DESIGN_PERSON_AND_ORGANIZATION_ASSIGNMENT ( #46, #21, ( #14 ) ) ;
#88 = DIRECTION ( 'NONE',  ( 1.000000000000000000, 0.000000000000000000, 0.000000000000000000 ) ) ;
#89 = APPLICATION_PROTOCOL_DEFINITION ( 'international standard', 'config_control_design', 1994, #119 ) ;
#90 = COORDINATED_UNIVERSAL_TIME_OFFSET ( 1, 0, .AHEAD. ) ;
#91 = VERTEX_POINT ( 'NONE', #63 ) ;
#92 = CIRCLE ( 'NONE', #123, 2.500000000000000000 ) ;
#93 = ORIENTED_EDGE ( 'NONE', *, *, #196, .F. ) ;
#94 = CC_DESIGN_APPROVAL ( #39, ( #79 ) ) ;
#95 = FACE_OUTER_BOUND ( 'NONE', #230, .T. ) ;
#96 = CARTESIAN_POINT ( 'NONE',  ( -2.500000000000000000, 0.000000000000000000, 160.0000000000000000 ) ) ;
#97 = CYLINDRICAL_SURFACE ( 'NONE', #132, 2.500000000000000000 ) ;
#98 = EDGE_CURVE ( 'NONE', #1, #42, #92, .T. ) ;
#99 = DIRECTION ( 'NONE',  ( 0.000000000000000000, 0.000000000000000000, 1.000000000000000000 ) ) ;
#100 = CARTESIAN_POINT ( 'NONE',  ( 0.000000000000000000, 0.000000000000000000, 160.0000000000000000 ) ) ;
#101 = DIRECTION ( 'NONE',  ( 0.000000000000000000, 0.000000000000000000, 1.000000000000000000 ) ) ;
#102 = EDGE_CURVE ( 'NONE', #42, #154, #18, .T. ) ;
#103 = LOCAL_TIME ( 17, 18, 18.00000000000000000, #108 ) ;
#104 = APPROVAL_DATE_TIME ( #244, #39 ) ;
#105 = CYLINDRICAL_SURFACE ( 'NONE', #41, 5.000000000000000000 ) ;
#106 = DIRECTION ( 'NONE',  ( 0.000000000000000000, 0.000000000000000000, 1.000000000000000000 ) ) ;
#107 = CYLINDRICAL_SURFACE ( 'NONE', #189, 2.500000000000000000 ) ;
#108 = COORDINATED_UNIVERSAL_TIME_OFFSET ( 1, 0, .AHEAD. ) ;
#109 = AXIS2_PLACEMENT_3D ( 'NONE', #116, #82, #117 ) ;
#110 = VERTEX_POINT ( 'NONE', #16 ) ;
#111 = VECTOR ( 'NONE', #176, 1000.000000000000000 ) ;
#112 = CIRCLE ( 'NONE', #248, 5.000000000000000000 ) ;
#113 = CC_DESIGN_APPROVAL ( #207, ( #81 ) ) ;
#114 = DIRECTION ( 'NONE',  ( -0.000000000000000000, -0.000000000000000000, -1.000000000000000000 ) ) ;
#115 = DIRECTION ( 'NONE',  ( -0.000000000000000000, -0.000000000000000000, -1.000000000000000000 ) ) ;
#116 = CARTESIAN_POINT ( 'NONE',  ( 0.000000000000000000, 0.000000000000000000, 5.000000000000000000 ) ) ;
#117 = DIRECTION ( 'NONE',  ( -1.000000000000000000, 0.000000000000000000, 0.000000000000000000 ) ) ;
#118 = DIRECTION ( 'NONE',  ( 1.000000000000000000, 0.000000000000000000, -0.000000000000000000 ) ) ;
#119 = APPLICATION_CONTEXT ( 'configuration controlled 3d designs of mechanical parts and assemblies' ) ;
#120 = ADVANCED_FACE ( 'NONE', ( #95 ), #97, .T. ) ;
#121 = CARTESIAN_POINT ( 'NONE',  ( 0.000000000000000000, 0.000000000000000000, 0.000000000000000000 ) ) ;
#122 = AXIS2_PLACEMENT_3D ( 'NONE', #224, #156, #68 ) ;
#123 = AXIS2_PLACEMENT_3D ( 'NONE', #222, #83, #40 ) ;
#124 =( NAMED_UNIT ( * ) SI_UNIT ( $, .STERADIAN. ) SOLID_ANGLE_UNIT ( ) );
#125 = APPROVAL_PERSON_ORGANIZATION ( #190, #207, #13 ) ;
#126 = DATE_AND_TIME ( #50, #60 ) ;
#127 = PERSON_AND_ORGANIZATION ( #75, #170 ) ;
#128 = EDGE_CURVE ( 'NONE', #91, #56, #112, .T. ) ;
#129 = ORIENTED_EDGE ( 'NONE', *, *, #77, .F. ) ;
#130 = AXIS2_PLACEMENT_3D ( 'NONE', #67, #66, #47 ) ;
#131 = ORIENTED_EDGE ( 'NONE', *, *, #173, .T. ) ;
#132 = AXIS2_PLACEMENT_3D ( 'NONE', #100, #115, #61 ) ;
#133 = CARTESIAN_POINT ( 'NONE',  ( -2.500000000000000000, 0.000000000000000000, 160.0000000000000000 ) ) ;
#134 = PLANE ( 'NONE',  #52 ) ;
#135 = CARTESIAN_POINT ( 'NONE',  ( 2.500000000000000000, 3.061616997868383141E-16, 5.000000000000000000 ) ) ;
#136 = CARTESIAN_POINT ( 'NONE',  ( 0.000000000000000000, 0.000000000000000000, 5.000000000000000000 ) ) ;
#137 = CARTESIAN_POINT ( 'NONE',  ( -5.000000000000000000, 0.000000000000000000, 5.000000000000000000 ) ) ;
#138 = AXIS2_PLACEMENT_3D ( 'NONE', #245, #23, #44 ) ;
#139 =( LENGTH_UNIT ( ) NAMED_UNIT ( * ) SI_UNIT ( .MILLI., .METRE. ) );
#140 = APPLICATION_CONTEXT ( 'configuration controlled 3d designs of mechanical parts and assemblies' ) ;
#141 = CC_DESIGN_PERSON_AND_ORGANIZATION_ASSIGNMENT ( #48, #163, ( #81 ) ) ;
#142 = EDGE_CURVE ( 'NONE', #1, #110, #17, .T. ) ;
#143 = FACE_OUTER_BOUND ( 'NONE', #55, .T. ) ;
#144 = APPLICATION_PROTOCOL_DEFINITION ( 'international standard', 'config_control_design', 1994, #140 ) ;
#145 = DIRECTION ( 'NONE',  ( 0.000000000000000000, 0.000000000000000000, 1.000000000000000000 ) ) ;
#146 = APPROVAL_PERSON_ORGANIZATION ( #127, #215, #53 ) ;
#147 = DATE_TIME_ROLE ( 'creation_date' ) ;
#148 = EDGE_LOOP ( 'NONE', ( #252, #165 ) ) ;
#149 = PERSON_AND_ORGANIZATION ( #75, #170 ) ;
#150 = ORIENTED_EDGE ( 'NONE', *, *, #128, .F. ) ;
#151 = FACE_OUTER_BOUND ( 'NONE', #71, .T. ) ;
#152 = DIRECTION ( 'NONE',  ( 0.000000000000000000, 0.000000000000000000, 1.000000000000000000 ) ) ;
#153 = CARTESIAN_POINT ( 'NONE',  ( -5.000000000000000000, 0.000000000000000000, 5.000000000000000000 ) ) ;
#154 = VERTEX_POINT ( 'NONE', #135 ) ;
#155 = ADVANCED_FACE ( 'NONE', ( #38 ), #175, .T. ) ;
#156 = DIRECTION ( 'NONE',  ( 0.000000000000000000, 0.000000000000000000, 1.000000000000000000 ) ) ;
#157 = CALENDAR_DATE ( 2023, 13, 2 ) ;
#158 = CIRCLE ( 'NONE', #62, 5.000000000000000000 ) ;
#159 = CARTESIAN_POINT ( 'NONE',  ( 5.000000000000000000, 6.123233995736766282E-16, 5.000000000000000000 ) ) ;
#160 = PRODUCT_RELATED_PRODUCT_CATEGORY ( 'detail', '', ( #14 ) ) ;
#161 = PERSON_AND_ORGANIZATION ( #75, #170 ) ;
#162 = ADVANCED_FACE ( 'NONE', ( #206 ), #27, .F. ) ;
#163 = PERSON_AND_ORGANIZATION_ROLE ( 'design_supplier' ) ;
#164 = AXIS2_PLACEMENT_3D ( 'NONE', #246, #145, #182 ) ;
#165 = ORIENTED_EDGE ( 'NONE', *, *, #196, .T. ) ;
#166 = PERSON_AND_ORGANIZATION ( #75, #170 ) ;
#167 = ORIENTED_EDGE ( 'NONE', *, *, #24, .T. ) ;
#168 = CC_DESIGN_PERSON_AND_ORGANIZATION_ASSIGNMENT ( #181, #210, ( #79 ) ) ;
#169 = ORIENTED_EDGE ( 'NONE', *, *, #243, .F. ) ;
#170 = ORGANIZATION ( 'NEURÈENÝ', 'NEURÈENÝ', '' ) ;
#171 = VERTEX_POINT ( 'NONE', #159 ) ;
#172 = ORIENTED_EDGE ( 'NONE', *, *, #225, .F. ) ;
#173 = EDGE_CURVE ( 'NONE', #64, #171, #195, .T. ) ;
#174 = DIRECTION ( 'NONE',  ( -0.000000000000000000, -0.000000000000000000, -1.000000000000000000 ) ) ;
#175 = PLANE ( 'NONE',  #249 ) ;
#176 = DIRECTION ( 'NONE',  ( -0.000000000000000000, -0.000000000000000000, -1.000000000000000000 ) ) ;
#177 = VECTOR ( 'NONE', #4, 1000.000000000000000 ) ;
#178 = ORIENTED_EDGE ( 'NONE', *, *, #173, .F. ) ;
#179 = APPROVAL_STATUS ( 'not_yet_approved' ) ;
#180 = CC_DESIGN_SECURITY_CLASSIFICATION ( #6, ( #81 ) ) ;
#181 = PERSON_AND_ORGANIZATION ( #75, #170 ) ;
#182 = DIRECTION ( 'NONE',  ( 1.000000000000000000, 0.000000000000000000, 0.000000000000000000 ) ) ;
#183 = CC_DESIGN_PERSON_AND_ORGANIZATION_ASSIGNMENT ( #149, #12, ( #6 ) ) ;
#184 = CIRCLE ( 'NONE', #205, 2.500000000000000000 ) ;
#185 = APPROVAL_STATUS ( 'not_yet_approved' ) ;
#186 = CALENDAR_DATE ( 2023, 13, 2 ) ;
#187 = ORIENTED_EDGE ( 'NONE', *, *, #243, .T. ) ;
#188 = CC_DESIGN_PERSON_AND_ORGANIZATION_ASSIGNMENT ( #166, #29, ( #81 ) ) ;
#189 = AXIS2_PLACEMENT_3D ( 'NONE', #9, #69, #227 ) ;
#190 = PERSON_AND_ORGANIZATION ( #75, #170 ) ;
#191 = ADVANCED_FACE ( 'NONE', ( #7 ), #105, .T. ) ;
#192 = DATE_AND_TIME ( #30, #241 ) ;
#193 = ORIENTED_EDGE ( 'NONE', *, *, #8, .T. ) ;
#194 = ORIENTED_EDGE ( 'NONE', *, *, #102, .T. ) ;
#195 = CIRCLE ( 'NONE', #130, 5.000000000000000000 ) ;
#196 = EDGE_CURVE ( 'NONE', #42, #1, #247, .T. ) ;
#197 = CYLINDRICAL_SURFACE ( 'NONE', #109, 5.000000000000000000 ) ;
#198 = VECTOR ( 'NONE', #174, 1000.000000000000000 ) ;
#199 = DIRECTION ( 'NONE',  ( 1.000000000000000000, 0.000000000000000000, 0.000000000000000000 ) ) ;
#200 = DIRECTION ( 'NONE',  ( 0.000000000000000000, 0.000000000000000000, 1.000000000000000000 ) ) ;
#201 = CARTESIAN_POINT ( 'NONE',  ( 0.000000000000000000, 0.000000000000000000, 160.0000000000000000 ) ) ;
#202 = DIRECTION ( 'NONE',  ( 1.000000000000000000, 0.000000000000000000, 0.000000000000000000 ) ) ;
#203 = MECHANICAL_CONTEXT ( 'NONE', #140, 'mechanical' ) ;
#204 = LOCAL_TIME ( 17, 18, 18.00000000000000000, #90 ) ;
#205 = AXIS2_PLACEMENT_3D ( 'NONE', #237, #200, #219 ) ;
#206 = FACE_OUTER_BOUND ( 'NONE', #59, .T. ) ;
#207 = APPROVAL ( #185, 'NEURÈENÝ' ) ;
#208 = CARTESIAN_POINT ( 'NONE',  ( 0.000000000000000000, 0.000000000000000000, 5.000000000000000000 ) ) ;
#209 = LOCAL_TIME ( 17, 18, 18.00000000000000000, #22 ) ;
#210 = PERSON_AND_ORGANIZATION_ROLE ( 'creator' ) ;
#211 = AXIS2_PLACEMENT_3D ( 'NONE', #121, #101, #45 ) ;
#212 = COORDINATED_UNIVERSAL_TIME_OFFSET ( 1, 0, .AHEAD. ) ;
#213 = COORDINATED_UNIVERSAL_TIME_OFFSET ( 1, 0, .AHEAD. ) ;
#214 = ORIENTED_EDGE ( 'NONE', *, *, #102, .F. ) ;
#215 = APPROVAL ( #250, 'NEURÈENÝ' ) ;
#216 = VECTOR ( 'NONE', #114, 1000.000000000000000 ) ;
#217 = CALENDAR_DATE ( 2023, 13, 2 ) ;
#218 = FACE_BOUND ( 'NONE', #73, .T. ) ;
#219 = DIRECTION ( 'NONE',  ( 1.000000000000000000, 0.000000000000000000, 0.000000000000000000 ) ) ;
#220 = LINE ( 'NONE', #20, #111 ) ;
#221 = ADVANCED_FACE ( 'NONE', ( #143 ), #107, .T. ) ;
#222 = CARTESIAN_POINT ( 'NONE',  ( 0.000000000000000000, 0.000000000000000000, 160.0000000000000000 ) ) ;
#223 = EDGE_LOOP ( 'NONE', ( #240, #178, #193, #254 ) ) ;
#224 = CARTESIAN_POINT ( 'NONE',  ( 0.000000000000000000, 0.000000000000000000, 160.0000000000000000 ) ) ;
#225 = EDGE_CURVE ( 'NONE', #154, #110, #70, .T. ) ;
#226 = DIRECTION ( 'NONE',  ( -1.000000000000000000, 0.000000000000000000, 0.000000000000000000 ) ) ;
#227 = DIRECTION ( 'NONE',  ( -1.000000000000000000, 0.000000000000000000, 0.000000000000000000 ) ) ;
#228 = CLOSED_SHELL ( 'NONE', ( #221, #72, #191, #58, #162, #120, #155 ) ) ;
#229 = MANIFOLD_SOLID_BREP ( 'Pøidat vysunutím3', #228 ) ;
#230 = EDGE_LOOP ( 'NONE', ( #214, #33, #49, #238 ) ) ;
#231 = DATE_AND_TIME ( #186, #103 ) ;
#232 = ORIENTED_EDGE ( 'NONE', *, *, #24, .F. ) ;
#233 = SHAPE_DEFINITION_REPRESENTATION ( #43, #25 ) ;
#234 = SECURITY_CLASSIFICATION_LEVEL ( 'unclassified' ) ;
#235 = DATE_TIME_ROLE ( 'classification_date' ) ;
#236 = ORIENTED_EDGE ( 'NONE', *, *, #142, .F. ) ;
#237 = CARTESIAN_POINT ( 'NONE',  ( 0.000000000000000000, 0.000000000000000000, 5.000000000000000000 ) ) ;
#238 = ORIENTED_EDGE ( 'NONE', *, *, #77, .T. ) ;
#239 = FACE_OUTER_BOUND ( 'NONE', #51, .T. ) ;
#240 = ORIENTED_EDGE ( 'NONE', *, *, #54, .F. ) ;
#241 = LOCAL_TIME ( 17, 18, 18.00000000000000000, #212 ) ;
#242 = DIRECTION ( 'NONE',  ( 1.000000000000000000, 0.000000000000000000, -0.000000000000000000 ) ) ;
#243 = EDGE_CURVE ( 'NONE', #171, #64, #74, .T. ) ;
#244 = DATE_AND_TIME ( #157, #209 ) ;
#245 = CARTESIAN_POINT ( 'NONE',  ( 0.000000000000000000, 0.000000000000000000, 5.000000000000000000 ) ) ;
#246 = CARTESIAN_POINT ( 'NONE',  ( 0.000000000000000000, 0.000000000000000000, 5.000000000000000000 ) ) ;
#247 = CIRCLE ( 'NONE', #122, 2.500000000000000000 ) ;
#248 = AXIS2_PLACEMENT_3D ( 'NONE', #5, #19, #199 ) ;
#249 = AXIS2_PLACEMENT_3D ( 'NONE', #201, #2, #242 ) ;
#250 = APPROVAL_STATUS ( 'not_yet_approved' ) ;
#251 = APPROVAL_DATE_TIME ( #231, #207 ) ;
#252 = ORIENTED_EDGE ( 'NONE', *, *, #98, .T. ) ;
#253 = DESIGN_CONTEXT ( 'detailed design', #119, 'design' ) ;
#254 = ORIENTED_EDGE ( 'NONE', *, *, #128, .T. ) ;
#255 = CARTESIAN_POINT ( 'NONE',  ( 5.000000000000000000, 6.123233995736766282E-16, 0.000000000000000000 ) ) ;
ENDSEC;
END-ISO-10303-21;
