ISO-10303-21;
HEADER;
FILE_DESCRIPTION (( 'STEP AP203' ),
    '1' );
FILE_NAME ('9f61.STEP',
    '2023-02-13T14:17:34',
    ( '' ),
    ( '' ),
    'SwSTEP 2.0',
    'SolidWorks 2019',
    '' );
FILE_SCHEMA (( 'CONFIG_CONTROL_DESIGN' ));
ENDSEC;

DATA;
#1 = DIRECTION ( 'NONE',  ( -0.000000000000000000, -0.000000000000000000, -1.000000000000000000 ) ) ;
#2 = EDGE_CURVE ( 'NONE', #102, #62, #193, .T. ) ;
#3 = ORIENTED_EDGE ( 'NONE', *, *, #28, .T. ) ;
#4 =( NAMED_UNIT ( * ) PLANE_ANGLE_UNIT ( ) SI_UNIT ( $, .RADIAN. ) );
#5 = ORIENTED_EDGE ( 'NONE', *, *, #123, .F. ) ;
#6 = ADVANCED_FACE ( 'NONE', ( #65 ), #142, .T. ) ;
#7 = ORIENTED_EDGE ( 'NONE', *, *, #95, .T. ) ;
#8 = ORIENTED_EDGE ( 'NONE', *, *, #227, .T. ) ;
#9 = APPROVAL_PERSON_ORGANIZATION ( #228, #189, #205 ) ;
#10 = ORIENTED_EDGE ( 'NONE', *, *, #123, .T. ) ;
#11 = COORDINATED_UNIVERSAL_TIME_OFFSET ( 1, 0, .AHEAD. ) ;
#12 = PLANE ( 'NONE',  #229 ) ;
#13 = PERSON_AND_ORGANIZATION ( #41, #23 ) ;
#14 = LOCAL_TIME ( 15, 17, 34.00000000000000000, #108 ) ;
#15 = APPROVAL_ROLE ( '' ) ;
#16 = DIRECTION ( 'NONE',  ( -1.000000000000000000, 0.000000000000000000, 0.000000000000000000 ) ) ;
#17 = LOCAL_TIME ( 15, 17, 34.00000000000000000, #248 ) ;
#18 = DIRECTION ( 'NONE',  ( 1.000000000000000000, 0.000000000000000000, 0.000000000000000000 ) ) ;
#19 = AXIS2_PLACEMENT_3D ( 'NONE', #152, #97, #235 ) ;
#20 = CARTESIAN_POINT ( 'NONE',  ( 0.000000000000000000, 0.000000000000000000, 6.500000000000000000 ) ) ;
#21 = ORIENTED_EDGE ( 'NONE', *, *, #196, .T. ) ;
#22 = ORIENTED_EDGE ( 'NONE', *, *, #2, .F. ) ;
#23 = ORGANIZATION ( 'NEURÈENÝ', 'NEURÈENÝ', '' ) ;
#24 = DIRECTION ( 'NONE',  ( -1.000000000000000000, 0.000000000000000000, 0.000000000000000000 ) ) ;
#25 =( LENGTH_UNIT ( ) NAMED_UNIT ( * ) SI_UNIT ( .MILLI., .METRE. ) );
#26 = EDGE_LOOP ( 'NONE', ( #5, #145 ) ) ;
#27 = DIRECTION ( 'NONE',  ( 1.000000000000000000, 0.000000000000000000, -0.000000000000000000 ) ) ;
#28 = EDGE_CURVE ( 'NONE', #84, #159, #42, .T. ) ;
#29 = PERSON_AND_ORGANIZATION ( #41, #23 ) ;
#30 = APPROVAL_STATUS ( 'not_yet_approved' ) ;
#31 = DATE_AND_TIME ( #50, #160 ) ;
#32 = ADVANCED_FACE ( 'NONE', ( #180 ), #161, .F. ) ;
#33 = CLOSED_SHELL ( 'NONE', ( #91, #136, #117, #52, #32, #6, #140 ) ) ;
#34 = CC_DESIGN_SECURITY_CLASSIFICATION ( #56, ( #250 ) ) ;
#35 = APPROVAL_STATUS ( 'not_yet_approved' ) ;
#36 = DIRECTION ( 'NONE',  ( 0.000000000000000000, 0.000000000000000000, 1.000000000000000000 ) ) ;
#37 = AXIS2_PLACEMENT_3D ( 'NONE', #57, #215, #18 ) ;
#38 = CARTESIAN_POINT ( 'NONE',  ( 4.099999999999999645, 5.021051876504147385E-16, 125.0000000000000000 ) ) ;
#39 = CC_DESIGN_PERSON_AND_ORGANIZATION_ASSIGNMENT ( #231, #187, ( #250 ) ) ;
#40 = CYLINDRICAL_SURFACE ( 'NONE', #93, 7.000000000000000000 ) ;
#41 = PERSON ( 'NEURÈENÝ', 'NEURÈENÝ', 'NEURÈENÝ', ('NEURÈENÝ'), ('NEURÈENÝ'), ('NEURÈENÝ') ) ;
#42 = CIRCLE ( 'NONE', #191, 4.099999999999999645 ) ;
#43 = CARTESIAN_POINT ( 'NONE',  ( -7.000000000000000000, 0.000000000000000000, 0.000000000000000000 ) ) ;
#44 = CARTESIAN_POINT ( 'NONE',  ( 0.000000000000000000, 0.000000000000000000, 6.500000000000000000 ) ) ;
#45 = ORIENTED_EDGE ( 'NONE', *, *, #213, .F. ) ;
#46 = DIRECTION ( 'NONE',  ( 0.000000000000000000, 0.000000000000000000, 1.000000000000000000 ) ) ;
#47 = LINE ( 'NONE', #64, #194 ) ;
#48 = ORIENTED_EDGE ( 'NONE', *, *, #2, .T. ) ;
#49 = CALENDAR_DATE ( 2023, 13, 2 ) ;
#50 = CALENDAR_DATE ( 2023, 13, 2 ) ;
#51 = PERSON_AND_ORGANIZATION ( #41, #23 ) ;
#52 = ADVANCED_FACE ( 'NONE', ( #105, #183 ), #12, .T. ) ;
#53 = SHAPE_DEFINITION_REPRESENTATION ( #114, #139 ) ;
#54 = COORDINATED_UNIVERSAL_TIME_OFFSET ( 1, 0, .AHEAD. ) ;
#55 = CC_DESIGN_APPROVAL ( #148, ( #192 ) ) ;
#56 = SECURITY_CLASSIFICATION ( '', '', #106 ) ;
#57 = CARTESIAN_POINT ( 'NONE',  ( 0.000000000000000000, 0.000000000000000000, 6.500000000000000000 ) ) ;
#58 = CIRCLE ( 'NONE', #200, 7.000000000000000000 ) ;
#59 = DIRECTION ( 'NONE',  ( 1.000000000000000000, 0.000000000000000000, 0.000000000000000000 ) ) ;
#60 = CC_DESIGN_DATE_AND_TIME_ASSIGNMENT ( #92, #163, ( #192 ) ) ;
#61 = AXIS2_PLACEMENT_3D ( 'NONE', #236, #181, #154 ) ;
#62 = VERTEX_POINT ( 'NONE', #188 ) ;
#63 = ORIENTED_EDGE ( 'NONE', *, *, #196, .F. ) ;
#64 = CARTESIAN_POINT ( 'NONE',  ( -7.000000000000000000, 0.000000000000000000, 6.500000000000000000 ) ) ;
#65 = FACE_OUTER_BOUND ( 'NONE', #199, .T. ) ;
#66 = APPROVAL ( #208, 'NEURÈENÝ' ) ;
#67 = DIRECTION ( 'NONE',  ( 0.000000000000000000, 0.000000000000000000, 1.000000000000000000 ) ) ;
#68 = DATE_AND_TIME ( #131, #109 ) ;
#69 = ORIENTED_EDGE ( 'NONE', *, *, #28, .F. ) ;
#70 = EDGE_CURVE ( 'NONE', #62, #84, #73, .T. ) ;
#71 = PERSON_AND_ORGANIZATION ( #41, #23 ) ;
#72 = AXIS2_PLACEMENT_3D ( 'NONE', #171, #195, #94 ) ;
#73 = LINE ( 'NONE', #78, #132 ) ;
#74 = DIRECTION ( 'NONE',  ( -0.000000000000000000, -0.000000000000000000, -1.000000000000000000 ) ) ;
#75 = CARTESIAN_POINT ( 'NONE',  ( -4.099999999999999645, 0.000000000000000000, 6.500000000000000000 ) ) ;
#76 = EDGE_CURVE ( 'NONE', #102, #159, #169, .T. ) ;
#77 = AXIS2_PLACEMENT_3D ( 'NONE', #176, #67, #27 ) ;
#78 = CARTESIAN_POINT ( 'NONE',  ( -4.099999999999999645, 0.000000000000000000, 125.0000000000000000 ) ) ;
#79 = AXIS2_PLACEMENT_3D ( 'NONE', #173, #116, #81 ) ;
#80 = CC_DESIGN_APPROVAL ( #189, ( #250 ) ) ;
#81 = DIRECTION ( 'NONE',  ( 1.000000000000000000, 0.000000000000000000, 0.000000000000000000 ) ) ;
#82 = ORIENTED_EDGE ( 'NONE', *, *, #70, .F. ) ;
#83 = CARTESIAN_POINT ( 'NONE',  ( 0.000000000000000000, 0.000000000000000000, 0.000000000000000000 ) ) ;
#84 = VERTEX_POINT ( 'NONE', #75 ) ;
#85 = EDGE_CURVE ( 'NONE', #226, #240, #209, .T. ) ;
#86 = ORIENTED_EDGE ( 'NONE', *, *, #170, .F. ) ;
#87 = AXIS2_PLACEMENT_3D ( 'NONE', #141, #221, #243 ) ;
#88 = ORIENTED_EDGE ( 'NONE', *, *, #95, .F. ) ;
#89 = APPROVAL_ROLE ( '' ) ;
#90 = APPLICATION_CONTEXT ( 'configuration controlled 3d designs of mechanical parts and assemblies' ) ;
#91 = ADVANCED_FACE ( 'NONE', ( #212 ), #190, .T. ) ;
#92 = DATE_AND_TIME ( #49, #182 ) ;
#93 = AXIS2_PLACEMENT_3D ( 'NONE', #20, #1, #16 ) ;
#94 = DIRECTION ( 'NONE',  ( -1.000000000000000000, 0.000000000000000000, 0.000000000000000000 ) ) ;
#95 = EDGE_CURVE ( 'NONE', #159, #84, #115, .T. ) ;
#96 = AXIS2_PLACEMENT_3D ( 'NONE', #214, #119, #150 ) ;
#97 = DIRECTION ( 'NONE',  ( -0.000000000000000000, -0.000000000000000000, -1.000000000000000000 ) ) ;
#98 = CARTESIAN_POINT ( 'NONE',  ( 4.099999999999999645, 5.021051876504147385E-16, 125.0000000000000000 ) ) ;
#99 =( NAMED_UNIT ( * ) SI_UNIT ( $, .STERADIAN. ) SOLID_ANGLE_UNIT ( ) );
#100 = ORIENTED_EDGE ( 'NONE', *, *, #76, .F. ) ;
#101 = EDGE_LOOP ( 'NONE', ( #63, #197, #8, #10 ) ) ;
#102 = VERTEX_POINT ( 'NONE', #38 ) ;
#103 = DIRECTION ( 'NONE',  ( 0.000000000000000000, 0.000000000000000000, 1.000000000000000000 ) ) ;
#104 = CARTESIAN_POINT ( 'NONE',  ( 7.000000000000000000, 8.572527594031471218E-16, 6.500000000000000000 ) ) ;
#105 = FACE_BOUND ( 'NONE', #224, .T. ) ;
#106 = SECURITY_CLASSIFICATION_LEVEL ( 'unclassified' ) ;
#107 = UNCERTAINTY_MEASURE_WITH_UNIT (LENGTH_MEASURE( 1.000000000000000082E-05 ), #25, 'distance_accuracy_value', 'NONE');
#108 = COORDINATED_UNIVERSAL_TIME_OFFSET ( 1, 0, .AHEAD. ) ;
#109 = LOCAL_TIME ( 15, 17, 34.00000000000000000, #184 ) ;
#110 = CALENDAR_DATE ( 2023, 13, 2 ) ;
#111 = CARTESIAN_POINT ( 'NONE',  ( 0.000000000000000000, 0.000000000000000000, 6.500000000000000000 ) ) ;
#112 = CC_DESIGN_DATE_AND_TIME_ASSIGNMENT ( #68, #207, ( #56 ) ) ;
#113 = APPROVAL_DATE_TIME ( #186, #189 ) ;
#114 = PRODUCT_DEFINITION_SHAPE ( 'NONE', 'NONE',  #192 ) ;
#115 = CIRCLE ( 'NONE', #37, 4.099999999999999645 ) ;
#116 = DIRECTION ( 'NONE',  ( 0.000000000000000000, 0.000000000000000000, 1.000000000000000000 ) ) ;
#117 = ADVANCED_FACE ( 'NONE', ( #211 ), #151, .T. ) ;
#118 = CARTESIAN_POINT ( 'NONE',  ( 0.000000000000000000, 0.000000000000000000, 0.000000000000000000 ) ) ;
#119 = DIRECTION ( 'NONE',  ( 0.000000000000000000, 0.000000000000000000, 1.000000000000000000 ) ) ;
#120 = AXIS2_PLACEMENT_3D ( 'NONE', #44, #46, #178 ) ;
#121 = DESIGN_CONTEXT ( 'detailed design', #135, 'design' ) ;
#122 = ORIENTED_EDGE ( 'NONE', *, *, #76, .T. ) ;
#123 = EDGE_CURVE ( 'NONE', #245, #219, #58, .T. ) ;
#124 = EDGE_LOOP ( 'NONE', ( #22, #122, #7, #82 ) ) ;
#125 = EDGE_LOOP ( 'NONE', ( #86, #21, #157, #126 ) ) ;
#126 = ORIENTED_EDGE ( 'NONE', *, *, #227, .F. ) ;
#127 = PERSON_AND_ORGANIZATION_ROLE ( 'design_supplier' ) ;
#128 = EDGE_CURVE ( 'NONE', #219, #245, #168, .T. ) ;
#129 = PERSON_AND_ORGANIZATION_ROLE ( 'classification_officer' ) ;
#130 = DIRECTION ( 'NONE',  ( 1.000000000000000000, 0.000000000000000000, -0.000000000000000000 ) ) ;
#131 = CALENDAR_DATE ( 2023, 13, 2 ) ;
#132 = VECTOR ( 'NONE', #252, 1000.000000000000000 ) ;
#133 =( GEOMETRIC_REPRESENTATION_CONTEXT ( 3 ) GLOBAL_UNCERTAINTY_ASSIGNED_CONTEXT ( ( #107 ) ) GLOBAL_UNIT_ASSIGNED_CONTEXT ( ( #25, #4, #99 ) ) REPRESENTATION_CONTEXT ( 'NONE', 'WORKASPACE' ) );
#134 = DIRECTION ( 'NONE',  ( 0.000000000000000000, 0.000000000000000000, 1.000000000000000000 ) ) ;
#135 = APPLICATION_CONTEXT ( 'configuration controlled 3d designs of mechanical parts and assemblies' ) ;
#136 = ADVANCED_FACE ( 'NONE', ( #174 ), #40, .T. ) ;
#137 = DIRECTION ( 'NONE',  ( 0.000000000000000000, 0.000000000000000000, 1.000000000000000000 ) ) ;
#138 = DIRECTION ( 'NONE',  ( 0.000000000000000000, 0.000000000000000000, 1.000000000000000000 ) ) ;
#139 = ADVANCED_BREP_SHAPE_REPRESENTATION ( '9f61', ( #206, #164 ), #133 ) ;
#140 = ADVANCED_FACE ( 'NONE', ( #251 ), #149, .T. ) ;
#141 = CARTESIAN_POINT ( 'NONE',  ( 0.000000000000000000, 0.000000000000000000, 125.0000000000000000 ) ) ;
#142 = CYLINDRICAL_SURFACE ( 'NONE', #165, 4.099999999999999645 ) ;
#143 = LINE ( 'NONE', #104, #255 ) ;
#144 = PERSON_AND_ORGANIZATION ( #41, #23 ) ;
#145 = ORIENTED_EDGE ( 'NONE', *, *, #128, .F. ) ;
#146 = PERSON_AND_ORGANIZATION_ROLE ( 'design_owner' ) ;
#147 = DATE_AND_TIME ( #185, #14 ) ;
#148 = APPROVAL ( #35, 'NEURÈENÝ' ) ;
#149 = PLANE ( 'NONE',  #61 ) ;
#150 = DIRECTION ( 'NONE',  ( 1.000000000000000000, 0.000000000000000000, 0.000000000000000000 ) ) ;
#151 = CYLINDRICAL_SURFACE ( 'NONE', #19, 7.000000000000000000 ) ;
#152 = CARTESIAN_POINT ( 'NONE',  ( 0.000000000000000000, 0.000000000000000000, 6.500000000000000000 ) ) ;
#153 = CC_DESIGN_PERSON_AND_ORGANIZATION_ASSIGNMENT ( #71, #166, ( #192 ) ) ;
#154 = DIRECTION ( 'NONE',  ( 1.000000000000000000, 0.000000000000000000, -0.000000000000000000 ) ) ;
#155 = CC_DESIGN_APPROVAL ( #66, ( #56 ) ) ;
#156 = CARTESIAN_POINT ( 'NONE',  ( 0.000000000000000000, 0.000000000000000000, 6.500000000000000000 ) ) ;
#157 = ORIENTED_EDGE ( 'NONE', *, *, #128, .T. ) ;
#158 = CARTESIAN_POINT ( 'NONE',  ( 0.000000000000000000, 0.000000000000000000, 125.0000000000000000 ) ) ;
#159 = VERTEX_POINT ( 'NONE', #244 ) ;
#160 = LOCAL_TIME ( 15, 17, 34.00000000000000000, #54 ) ;
#161 = PLANE ( 'NONE',  #77 ) ;
#162 = EDGE_LOOP ( 'NONE', ( #202, #48 ) ) ;
#163 = DATE_TIME_ROLE ( 'creation_date' ) ;
#164 = AXIS2_PLACEMENT_3D ( 'NONE', #83, #138, #218 ) ;
#165 = AXIS2_PLACEMENT_3D ( 'NONE', #177, #222, #24 ) ;
#166 = PERSON_AND_ORGANIZATION_ROLE ( 'creator' ) ;
#167 = PERSON_AND_ORGANIZATION ( #41, #23 ) ;
#168 = CIRCLE ( 'NONE', #79, 7.000000000000000000 ) ;
#169 = LINE ( 'NONE', #98, #254 ) ;
#170 = EDGE_CURVE ( 'NONE', #240, #226, #233, .T. ) ;
#171 = CARTESIAN_POINT ( 'NONE',  ( 0.000000000000000000, 0.000000000000000000, 125.0000000000000000 ) ) ;
#172 = APPROVAL_PERSON_ORGANIZATION ( #167, #66, #89 ) ;
#173 = CARTESIAN_POINT ( 'NONE',  ( 0.000000000000000000, 0.000000000000000000, 0.000000000000000000 ) ) ;
#174 = FACE_OUTER_BOUND ( 'NONE', #125, .T. ) ;
#175 = DIRECTION ( 'NONE',  ( -0.000000000000000000, -0.000000000000000000, -1.000000000000000000 ) ) ;
#176 = CARTESIAN_POINT ( 'NONE',  ( 0.000000000000000000, 0.000000000000000000, 0.000000000000000000 ) ) ;
#177 = CARTESIAN_POINT ( 'NONE',  ( 0.000000000000000000, 0.000000000000000000, 125.0000000000000000 ) ) ;
#178 = DIRECTION ( 'NONE',  ( 1.000000000000000000, 0.000000000000000000, 0.000000000000000000 ) ) ;
#179 = ORIENTED_EDGE ( 'NONE', *, *, #170, .T. ) ;
#180 = FACE_OUTER_BOUND ( 'NONE', #26, .T. ) ;
#181 = DIRECTION ( 'NONE',  ( 0.000000000000000000, 0.000000000000000000, 1.000000000000000000 ) ) ;
#182 = LOCAL_TIME ( 15, 17, 34.00000000000000000, #11 ) ;
#183 = FACE_OUTER_BOUND ( 'NONE', #201, .T. ) ;
#184 = COORDINATED_UNIVERSAL_TIME_OFFSET ( 1, 0, .AHEAD. ) ;
#185 = CALENDAR_DATE ( 2023, 13, 2 ) ;
#186 = DATE_AND_TIME ( #110, #17 ) ;
#187 = PERSON_AND_ORGANIZATION_ROLE ( 'creator' ) ;
#188 = CARTESIAN_POINT ( 'NONE',  ( -4.099999999999999645, 0.000000000000000000, 125.0000000000000000 ) ) ;
#189 = APPROVAL ( #30, 'NEURÈENÝ' ) ;
#190 = CYLINDRICAL_SURFACE ( 'NONE', #72, 4.099999999999999645 ) ;
#191 = AXIS2_PLACEMENT_3D ( 'NONE', #156, #103, #204 ) ;
#192 = PRODUCT_DEFINITION ( 'NEZNÁMÝ', '', #250, #121 ) ;
#193 = CIRCLE ( 'NONE', #87, 4.099999999999999645 ) ;
#194 = VECTOR ( 'NONE', #175, 1000.000000000000000 ) ;
#195 = DIRECTION ( 'NONE',  ( -0.000000000000000000, -0.000000000000000000, -1.000000000000000000 ) ) ;
#196 = EDGE_CURVE ( 'NONE', #240, #219, #143, .T. ) ;
#197 = ORIENTED_EDGE ( 'NONE', *, *, #85, .F. ) ;
#198 = CARTESIAN_POINT ( 'NONE',  ( 7.000000000000000000, 8.572527594031471218E-16, 6.500000000000000000 ) ) ;
#199 = EDGE_LOOP ( 'NONE', ( #100, #45, #239, #3 ) ) ;
#200 = AXIS2_PLACEMENT_3D ( 'NONE', #118, #36, #59 ) ;
#201 = EDGE_LOOP ( 'NONE', ( #247, #179 ) ) ;
#202 = ORIENTED_EDGE ( 'NONE', *, *, #213, .T. ) ;
#203 = CC_DESIGN_PERSON_AND_ORGANIZATION_ASSIGNMENT ( #144, #129, ( #56 ) ) ;
#204 = DIRECTION ( 'NONE',  ( 1.000000000000000000, 0.000000000000000000, 0.000000000000000000 ) ) ;
#205 = APPROVAL_ROLE ( '' ) ;
#206 = MANIFOLD_SOLID_BREP ( 'Pøidat vysunutím3', #33 ) ;
#207 = DATE_TIME_ROLE ( 'classification_date' ) ;
#208 = APPROVAL_STATUS ( 'not_yet_approved' ) ;
#209 = CIRCLE ( 'NONE', #96, 7.000000000000000000 ) ;
#210 = APPROVAL_PERSON_ORGANIZATION ( #13, #148, #15 ) ;
#211 = FACE_OUTER_BOUND ( 'NONE', #101, .T. ) ;
#212 = FACE_OUTER_BOUND ( 'NONE', #124, .T. ) ;
#213 = EDGE_CURVE ( 'NONE', #62, #102, #230, .T. ) ;
#214 = CARTESIAN_POINT ( 'NONE',  ( 0.000000000000000000, 0.000000000000000000, 6.500000000000000000 ) ) ;
#215 = DIRECTION ( 'NONE',  ( 0.000000000000000000, 0.000000000000000000, 1.000000000000000000 ) ) ;
#216 = AXIS2_PLACEMENT_3D ( 'NONE', #158, #137, #223 ) ;
#217 = CARTESIAN_POINT ( 'NONE',  ( 7.000000000000000000, 8.572527594031471218E-16, 0.000000000000000000 ) ) ;
#218 = DIRECTION ( 'NONE',  ( 1.000000000000000000, 0.000000000000000000, 0.000000000000000000 ) ) ;
#219 = VERTEX_POINT ( 'NONE', #217 ) ;
#220 = APPLICATION_PROTOCOL_DEFINITION ( 'international standard', 'config_control_design', 1994, #90 ) ;
#221 = DIRECTION ( 'NONE',  ( 0.000000000000000000, 0.000000000000000000, 1.000000000000000000 ) ) ;
#222 = DIRECTION ( 'NONE',  ( -0.000000000000000000, -0.000000000000000000, -1.000000000000000000 ) ) ;
#223 = DIRECTION ( 'NONE',  ( 1.000000000000000000, 0.000000000000000000, 0.000000000000000000 ) ) ;
#224 = EDGE_LOOP ( 'NONE', ( #69, #88 ) ) ;
#225 = APPROVAL_DATE_TIME ( #31, #148 ) ;
#226 = VERTEX_POINT ( 'NONE', #242 ) ;
#227 = EDGE_CURVE ( 'NONE', #226, #245, #47, .T. ) ;
#228 = PERSON_AND_ORGANIZATION ( #41, #23 ) ;
#229 = AXIS2_PLACEMENT_3D ( 'NONE', #111, #134, #130 ) ;
#230 = CIRCLE ( 'NONE', #216, 4.099999999999999645 ) ;
#231 = PERSON_AND_ORGANIZATION ( #41, #23 ) ;
#232 = APPROVAL_DATE_TIME ( #147, #66 ) ;
#233 = CIRCLE ( 'NONE', #120, 7.000000000000000000 ) ;
#234 = PRODUCT_RELATED_PRODUCT_CATEGORY ( 'detail', '', ( #253 ) ) ;
#235 = DIRECTION ( 'NONE',  ( -1.000000000000000000, 0.000000000000000000, 0.000000000000000000 ) ) ;
#236 = CARTESIAN_POINT ( 'NONE',  ( 0.000000000000000000, 0.000000000000000000, 125.0000000000000000 ) ) ;
#237 = DIRECTION ( 'NONE',  ( -0.000000000000000000, -0.000000000000000000, -1.000000000000000000 ) ) ;
#238 = MECHANICAL_CONTEXT ( 'NONE', #90, 'mechanical' ) ;
#239 = ORIENTED_EDGE ( 'NONE', *, *, #70, .T. ) ;
#240 = VERTEX_POINT ( 'NONE', #198 ) ;
#241 = CC_DESIGN_PERSON_AND_ORGANIZATION_ASSIGNMENT ( #51, #146, ( #253 ) ) ;
#242 = CARTESIAN_POINT ( 'NONE',  ( -7.000000000000000000, 0.000000000000000000, 6.500000000000000000 ) ) ;
#243 = DIRECTION ( 'NONE',  ( 1.000000000000000000, 0.000000000000000000, 0.000000000000000000 ) ) ;
#244 = CARTESIAN_POINT ( 'NONE',  ( 4.099999999999999645, 5.021051876504147385E-16, 6.500000000000000000 ) ) ;
#245 = VERTEX_POINT ( 'NONE', #43 ) ;
#246 = APPLICATION_PROTOCOL_DEFINITION ( 'international standard', 'config_control_design', 1994, #135 ) ;
#247 = ORIENTED_EDGE ( 'NONE', *, *, #85, .T. ) ;
#248 = COORDINATED_UNIVERSAL_TIME_OFFSET ( 1, 0, .AHEAD. ) ;
#249 = CC_DESIGN_PERSON_AND_ORGANIZATION_ASSIGNMENT ( #29, #127, ( #250 ) ) ;
#250 = PRODUCT_DEFINITION_FORMATION_WITH_SPECIFIED_SOURCE ( 'LIBOVOLNÝ', '', #253, .NOT_KNOWN. ) ;
#251 = FACE_OUTER_BOUND ( 'NONE', #162, .T. ) ;
#252 = DIRECTION ( 'NONE',  ( -0.000000000000000000, -0.000000000000000000, -1.000000000000000000 ) ) ;
#253 = PRODUCT ( '9f61', '9f61', '', ( #238 ) ) ;
#254 = VECTOR ( 'NONE', #74, 1000.000000000000000 ) ;
#255 = VECTOR ( 'NONE', #237, 1000.000000000000000 ) ;
ENDSEC;
END-ISO-10303-21;
