ISO-10303-21;
HEADER;
FILE_DESCRIPTION (( 'STEP AP203' ),
    '1' );
FILE_NAME ('249a.STEP',
    '2023-02-13T15:18:24',
    ( '' ),
    ( '' ),
    'SwSTEP 2.0',
    'SolidWorks 2019',
    '' );
FILE_SCHEMA (( 'CONFIG_CONTROL_DESIGN' ));
ENDSEC;

DATA;
#1 = EDGE_CURVE ( 'NONE', #199, #80, #103, .T. ) ;
#2 = CARTESIAN_POINT ( 'NONE',  ( 0.000000000000000000, 0.000000000000000000, 5.000000000000000000 ) ) ;
#3 = EDGE_LOOP ( 'NONE', ( #123, #235, #147, #4 ) ) ;
#4 = ORIENTED_EDGE ( 'NONE', *, *, #164, .T. ) ;
#5 = ORIENTED_EDGE ( 'NONE', *, *, #81, .F. ) ;
#6 =( NAMED_UNIT ( * ) SI_UNIT ( $, .STERADIAN. ) SOLID_ANGLE_UNIT ( ) );
#7 = CIRCLE ( 'NONE', #118, 6.000000000000000888 ) ;
#8 = PERSON_AND_ORGANIZATION ( #128, #218 ) ;
#9 = VECTOR ( 'NONE', #24, 1000.000000000000000 ) ;
#10 = APPLICATION_CONTEXT ( 'configuration controlled 3d designs of mechanical parts and assemblies' ) ;
#11 = DIRECTION ( 'NONE',  ( 0.000000000000000000, 0.000000000000000000, 1.000000000000000000 ) ) ;
#12 = LOCAL_TIME ( 16, 18, 24.00000000000000000, #72 ) ;
#13 = VERTEX_POINT ( 'NONE', #138 ) ;
#14 = DIRECTION ( 'NONE',  ( 0.000000000000000000, 0.000000000000000000, 1.000000000000000000 ) ) ;
#15 = ORIENTED_EDGE ( 'NONE', *, *, #99, .F. ) ;
#16 = ADVANCED_FACE ( 'NONE', ( #151, #115 ), #189, .T. ) ;
#17 = DIRECTION ( 'NONE',  ( 0.000000000000000000, 0.000000000000000000, 1.000000000000000000 ) ) ;
#18 = AXIS2_PLACEMENT_3D ( 'NONE', #108, #227, #201 ) ;
#19 = EDGE_LOOP ( 'NONE', ( #158, #36, #98, #107 ) ) ;
#20 = FACE_OUTER_BOUND ( 'NONE', #67, .T. ) ;
#21 = EDGE_LOOP ( 'NONE', ( #198, #142, #160, #179 ) ) ;
#22 = CALENDAR_DATE ( 2023, 13, 2 ) ;
#23 = APPROVAL_PERSON_ORGANIZATION ( #153, #245, #143 ) ;
#24 = DIRECTION ( 'NONE',  ( -0.000000000000000000, -0.000000000000000000, -1.000000000000000000 ) ) ;
#25 = DIRECTION ( 'NONE',  ( 0.000000000000000000, 0.000000000000000000, 1.000000000000000000 ) ) ;
#26 = COORDINATED_UNIVERSAL_TIME_OFFSET ( 1, 0, .AHEAD. ) ;
#27 = PRODUCT_RELATED_PRODUCT_CATEGORY ( 'detail', '', ( #242 ) ) ;
#28 = CARTESIAN_POINT ( 'NONE',  ( 3.100000000000000089, 3.796405077356794918E-16, 800.0000000000000000 ) ) ;
#29 = CARTESIAN_POINT ( 'NONE',  ( 3.100000000000000089, 3.796405077356794918E-16, 5.000000000000000000 ) ) ;
#30 = PERSON_AND_ORGANIZATION ( #128, #218 ) ;
#31 = DIRECTION ( 'NONE',  ( 1.000000000000000000, 0.000000000000000000, 0.000000000000000000 ) ) ;
#32 = DIRECTION ( 'NONE',  ( -1.000000000000000000, 0.000000000000000000, 0.000000000000000000 ) ) ;
#33 = EDGE_CURVE ( 'NONE', #38, #177, #7, .T. ) ;
#34 = DIRECTION ( 'NONE',  ( 1.000000000000000000, 0.000000000000000000, 0.000000000000000000 ) ) ;
#35 = CC_DESIGN_APPROVAL ( #245, ( #130 ) ) ;
#36 = ORIENTED_EDGE ( 'NONE', *, *, #93, .F. ) ;
#37 = PLANE ( 'NONE',  #225 ) ;
#38 = VERTEX_POINT ( 'NONE', #100 ) ;
#39 = AXIS2_PLACEMENT_3D ( 'NONE', #178, #255, #166 ) ;
#40 = ADVANCED_FACE ( 'NONE', ( #175 ), #216, .T. ) ;
#41 = DIRECTION ( 'NONE',  ( 1.000000000000000000, 0.000000000000000000, -0.000000000000000000 ) ) ;
#42 = VECTOR ( 'NONE', #51, 1000.000000000000000 ) ;
#43 = CARTESIAN_POINT ( 'NONE',  ( 0.000000000000000000, 0.000000000000000000, 800.0000000000000000 ) ) ;
#44 = CYLINDRICAL_SURFACE ( 'NONE', #18, 3.100000000000000089 ) ;
#45 = LINE ( 'NONE', #28, #42 ) ;
#46 = ADVANCED_FACE ( 'NONE', ( #161 ), #37, .T. ) ;
#47 = AXIS2_PLACEMENT_3D ( 'NONE', #2, #167, #252 ) ;
#48 = CARTESIAN_POINT ( 'NONE',  ( -6.000000000000000888, 0.000000000000000000, 5.000000000000000000 ) ) ;
#49 = PERSON_AND_ORGANIZATION_ROLE ( 'design_supplier' ) ;
#50 = CC_DESIGN_SECURITY_CLASSIFICATION ( #131, ( #96 ) ) ;
#51 = DIRECTION ( 'NONE',  ( -0.000000000000000000, -0.000000000000000000, -1.000000000000000000 ) ) ;
#52 = ADVANCED_FACE ( 'NONE', ( #20 ), #159, .F. ) ;
#53 = APPROVAL_STATUS ( 'not_yet_approved' ) ;
#54 = VECTOR ( 'NONE', #56, 1000.000000000000000 ) ;
#55 = DIRECTION ( 'NONE',  ( 1.000000000000000000, 0.000000000000000000, -0.000000000000000000 ) ) ;
#56 = DIRECTION ( 'NONE',  ( -0.000000000000000000, -0.000000000000000000, -1.000000000000000000 ) ) ;
#57 = DIRECTION ( 'NONE',  ( 0.000000000000000000, 0.000000000000000000, 1.000000000000000000 ) ) ;
#58 = LOCAL_TIME ( 16, 18, 24.00000000000000000, #214 ) ;
#59 = EDGE_CURVE ( 'NONE', #13, #38, #83, .T. ) ;
#60 = DIRECTION ( 'NONE',  ( 1.000000000000000000, 0.000000000000000000, -0.000000000000000000 ) ) ;
#61 = CALENDAR_DATE ( 2023, 13, 2 ) ;
#62 = APPLICATION_PROTOCOL_DEFINITION ( 'international standard', 'config_control_design', 1994, #10 ) ;
#63 = CARTESIAN_POINT ( 'NONE',  ( 0.000000000000000000, 0.000000000000000000, 800.0000000000000000 ) ) ;
#64 = AXIS2_PLACEMENT_3D ( 'NONE', #112, #91, #73 ) ;
#65 = EDGE_CURVE ( 'NONE', #111, #191, #45, .T. ) ;
#66 = DATE_TIME_ROLE ( 'classification_date' ) ;
#67 = EDGE_LOOP ( 'NONE', ( #5, #162 ) ) ;
#68 = AXIS2_PLACEMENT_3D ( 'NONE', #156, #17, #60 ) ;
#69 = FACE_OUTER_BOUND ( 'NONE', #3, .T. ) ;
#70 = LOCAL_TIME ( 16, 18, 24.00000000000000000, #26 ) ;
#71 = CARTESIAN_POINT ( 'NONE',  ( -6.000000000000000888, 0.000000000000000000, 5.000000000000000000 ) ) ;
#72 = COORDINATED_UNIVERSAL_TIME_OFFSET ( 1, 0, .AHEAD. ) ;
#73 = DIRECTION ( 'NONE',  ( 1.000000000000000000, 0.000000000000000000, 0.000000000000000000 ) ) ;
#74 = CARTESIAN_POINT ( 'NONE',  ( 0.000000000000000000, 0.000000000000000000, 5.000000000000000000 ) ) ;
#75 = CC_DESIGN_PERSON_AND_ORGANIZATION_ASSIGNMENT ( #244, #186, ( #131 ) ) ;
#76 = PERSON_AND_ORGANIZATION_ROLE ( 'design_owner' ) ;
#77 = EDGE_CURVE ( 'NONE', #199, #111, #168, .T. ) ;
#78 = ORIENTED_EDGE ( 'NONE', *, *, #33, .T. ) ;
#79 = CIRCLE ( 'NONE', #92, 6.000000000000000888 ) ;
#80 = VERTEX_POINT ( 'NONE', #85 ) ;
#81 = EDGE_CURVE ( 'NONE', #177, #38, #180, .T. ) ;
#82 = CC_DESIGN_APPROVAL ( #183, ( #131 ) ) ;
#83 = LINE ( 'NONE', #105, #101 ) ;
#84 = AXIS2_PLACEMENT_3D ( 'NONE', #43, #213, #32 ) ;
#85 = CARTESIAN_POINT ( 'NONE',  ( -3.100000000000000089, 0.000000000000000000, 5.000000000000000000 ) ) ;
#86 = APPROVAL_STATUS ( 'not_yet_approved' ) ;
#87 = ORIENTED_EDGE ( 'NONE', *, *, #59, .T. ) ;
#88 = ADVANCED_FACE ( 'NONE', ( #228 ), #221, .T. ) ;
#89 = SHAPE_DEFINITION_REPRESENTATION ( #137, #232 ) ;
#90 = DIRECTION ( 'NONE',  ( 1.000000000000000000, 0.000000000000000000, 0.000000000000000000 ) ) ;
#91 = DIRECTION ( 'NONE',  ( 0.000000000000000000, 0.000000000000000000, 1.000000000000000000 ) ) ;
#92 = AXIS2_PLACEMENT_3D ( 'NONE', #74, #148, #31 ) ;
#93 = EDGE_CURVE ( 'NONE', #194, #13, #254, .T. ) ;
#94 = APPROVAL_ROLE ( '' ) ;
#95 = CARTESIAN_POINT ( 'NONE',  ( 0.000000000000000000, 0.000000000000000000, 5.000000000000000000 ) ) ;
#96 = PRODUCT_DEFINITION_FORMATION_WITH_SPECIFIED_SOURCE ( 'LIBOVOLNÝ', '', #242, .NOT_KNOWN. ) ;
#97 =( NAMED_UNIT ( * ) PLANE_ANGLE_UNIT ( ) SI_UNIT ( $, .RADIAN. ) );
#98 = ORIENTED_EDGE ( 'NONE', *, *, #136, .T. ) ;
#99 = EDGE_CURVE ( 'NONE', #191, #80, #250, .T. ) ;
#100 = CARTESIAN_POINT ( 'NONE',  ( 6.000000000000000888, 7.347880794884120722E-16, 0.000000000000000000 ) ) ;
#101 = VECTOR ( 'NONE', #223, 1000.000000000000000 ) ;
#102 = ORIENTED_EDGE ( 'NONE', *, *, #77, .T. ) ;
#103 = LINE ( 'NONE', #236, #54 ) ;
#104 = ADVANCED_FACE ( 'NONE', ( #69 ), #44, .T. ) ;
#105 = CARTESIAN_POINT ( 'NONE',  ( 6.000000000000000888, 7.347880794884120722E-16, 5.000000000000000000 ) ) ;
#106 = APPROVAL_PERSON_ORGANIZATION ( #230, #220, #133 ) ;
#107 = ORIENTED_EDGE ( 'NONE', *, *, #81, .T. ) ;
#108 = CARTESIAN_POINT ( 'NONE',  ( 0.000000000000000000, 0.000000000000000000, 800.0000000000000000 ) ) ;
#109 = CLOSED_SHELL ( 'NONE', ( #88, #40, #240, #16, #52, #104, #46 ) ) ;
#110 = CALENDAR_DATE ( 2023, 13, 2 ) ;
#111 = VERTEX_POINT ( 'NONE', #145 ) ;
#112 = CARTESIAN_POINT ( 'NONE',  ( 0.000000000000000000, 0.000000000000000000, 800.0000000000000000 ) ) ;
#113 = AXIS2_PLACEMENT_3D ( 'NONE', #243, #129, #181 ) ;
#114 = CARTESIAN_POINT ( 'NONE',  ( -6.000000000000000888, 0.000000000000000000, 0.000000000000000000 ) ) ;
#115 = FACE_OUTER_BOUND ( 'NONE', #182, .T. ) ;
#116 = FACE_OUTER_BOUND ( 'NONE', #19, .T. ) ;
#117 = AXIS2_PLACEMENT_3D ( 'NONE', #234, #163, #55 ) ;
#118 = AXIS2_PLACEMENT_3D ( 'NONE', #141, #11, #155 ) ;
#119 =( LENGTH_UNIT ( ) NAMED_UNIT ( * ) SI_UNIT ( .MILLI., .METRE. ) );
#120 = APPLICATION_PROTOCOL_DEFINITION ( 'international standard', 'config_control_design', 1994, #125 ) ;
#121 = EDGE_LOOP ( 'NONE', ( #150, #87, #78, #224 ) ) ;
#122 = UNCERTAINTY_MEASURE_WITH_UNIT (LENGTH_MEASURE( 1.000000000000000082E-05 ), #119, 'distance_accuracy_value', 'NONE');
#123 = ORIENTED_EDGE ( 'NONE', *, *, #65, .F. ) ;
#124 = PERSON_AND_ORGANIZATION_ROLE ( 'creator' ) ;
#125 = APPLICATION_CONTEXT ( 'configuration controlled 3d designs of mechanical parts and assemblies' ) ;
#126 = ORIENTED_EDGE ( 'NONE', *, *, #197, .T. ) ;
#127 = CC_DESIGN_DATE_AND_TIME_ASSIGNMENT ( #233, #66, ( #131 ) ) ;
#128 = PERSON ( 'NEURÈENÝ', 'NEURÈENÝ', 'NEURÈENÝ', ('NEURÈENÝ'), ('NEURÈENÝ'), ('NEURÈENÝ') ) ;
#129 = DIRECTION ( 'NONE',  ( 0.000000000000000000, 0.000000000000000000, 1.000000000000000000 ) ) ;
#130 = PRODUCT_DEFINITION ( 'NEZNÁMÝ', '', #96, #185 ) ;
#131 = SECURITY_CLASSIFICATION ( '', '', #226 ) ;
#132 = CARTESIAN_POINT ( 'NONE',  ( 0.000000000000000000, 0.000000000000000000, 5.000000000000000000 ) ) ;
#133 = APPROVAL_ROLE ( '' ) ;
#134 = DIRECTION ( 'NONE',  ( 0.000000000000000000, 0.000000000000000000, 1.000000000000000000 ) ) ;
#135 = ORIENTED_EDGE ( 'NONE', *, *, #173, .T. ) ;
#136 = EDGE_CURVE ( 'NONE', #194, #177, #144, .T. ) ;
#137 = PRODUCT_DEFINITION_SHAPE ( 'NONE', 'NONE',  #130 ) ;
#138 = CARTESIAN_POINT ( 'NONE',  ( 6.000000000000000888, 7.347880794884120722E-16, 5.000000000000000000 ) ) ;
#139 = APPROVAL_DATE_TIME ( #217, #245 ) ;
#140 = ORIENTED_EDGE ( 'NONE', *, *, #93, .T. ) ;
#141 = CARTESIAN_POINT ( 'NONE',  ( 0.000000000000000000, 0.000000000000000000, 0.000000000000000000 ) ) ;
#142 = ORIENTED_EDGE ( 'NONE', *, *, #65, .T. ) ;
#143 = APPROVAL_ROLE ( '' ) ;
#144 = LINE ( 'NONE', #48, #9 ) ;
#145 = CARTESIAN_POINT ( 'NONE',  ( 3.100000000000000089, 3.796405077356794918E-16, 800.0000000000000000 ) ) ;
#146 = PERSON_AND_ORGANIZATION ( #128, #218 ) ;
#147 = ORIENTED_EDGE ( 'NONE', *, *, #1, .T. ) ;
#148 = DIRECTION ( 'NONE',  ( 0.000000000000000000, 0.000000000000000000, 1.000000000000000000 ) ) ;
#149 = DATE_AND_TIME ( #176, #70 ) ;
#150 = ORIENTED_EDGE ( 'NONE', *, *, #197, .F. ) ;
#151 = FACE_BOUND ( 'NONE', #215, .T. ) ;
#152 = DIRECTION ( 'NONE',  ( -0.000000000000000000, -0.000000000000000000, -1.000000000000000000 ) ) ;
#153 = PERSON_AND_ORGANIZATION ( #128, #218 ) ;
#154 = CARTESIAN_POINT ( 'NONE',  ( 0.000000000000000000, 0.000000000000000000, 5.000000000000000000 ) ) ;
#155 = DIRECTION ( 'NONE',  ( 1.000000000000000000, 0.000000000000000000, 0.000000000000000000 ) ) ;
#156 = CARTESIAN_POINT ( 'NONE',  ( 0.000000000000000000, 0.000000000000000000, 5.000000000000000000 ) ) ;
#157 = COORDINATED_UNIVERSAL_TIME_OFFSET ( 1, 0, .AHEAD. ) ;
#158 = ORIENTED_EDGE ( 'NONE', *, *, #59, .F. ) ;
#159 = PLANE ( 'NONE',  #117 ) ;
#160 = ORIENTED_EDGE ( 'NONE', *, *, #99, .T. ) ;
#161 = FACE_OUTER_BOUND ( 'NONE', #253, .T. ) ;
#162 = ORIENTED_EDGE ( 'NONE', *, *, #33, .F. ) ;
#163 = DIRECTION ( 'NONE',  ( 0.000000000000000000, 0.000000000000000000, 1.000000000000000000 ) ) ;
#164 = EDGE_CURVE ( 'NONE', #80, #191, #200, .T. ) ;
#165 = APPROVAL_PERSON_ORGANIZATION ( #146, #183, #94 ) ;
#166 = DIRECTION ( 'NONE',  ( 1.000000000000000000, 0.000000000000000000, 0.000000000000000000 ) ) ;
#167 = DIRECTION ( 'NONE',  ( -0.000000000000000000, -0.000000000000000000, -1.000000000000000000 ) ) ;
#168 = CIRCLE ( 'NONE', #113, 3.100000000000000089 ) ;
#169 = CIRCLE ( 'NONE', #64, 3.100000000000000089 ) ;
#170 = DATE_TIME_ROLE ( 'creation_date' ) ;
#171 = DATE_AND_TIME ( #22, #246 ) ;
#172 = CC_DESIGN_DATE_AND_TIME_ASSIGNMENT ( #238, #170, ( #130 ) ) ;
#173 = EDGE_CURVE ( 'NONE', #111, #199, #169, .T. ) ;
#174 = CARTESIAN_POINT ( 'NONE',  ( 0.000000000000000000, 0.000000000000000000, 5.000000000000000000 ) ) ;
#175 = FACE_OUTER_BOUND ( 'NONE', #121, .T. ) ;
#176 = CALENDAR_DATE ( 2023, 13, 2 ) ;
#177 = VERTEX_POINT ( 'NONE', #114 ) ;
#178 = CARTESIAN_POINT ( 'NONE',  ( 0.000000000000000000, 0.000000000000000000, 0.000000000000000000 ) ) ;
#179 = ORIENTED_EDGE ( 'NONE', *, *, #1, .F. ) ;
#180 = CIRCLE ( 'NONE', #184, 6.000000000000000888 ) ;
#181 = DIRECTION ( 'NONE',  ( 1.000000000000000000, 0.000000000000000000, 0.000000000000000000 ) ) ;
#182 = EDGE_LOOP ( 'NONE', ( #140, #126 ) ) ;
#183 = APPROVAL ( #86, 'NEURÈENÝ' ) ;
#184 = AXIS2_PLACEMENT_3D ( 'NONE', #206, #25, #90 ) ;
#185 = DESIGN_CONTEXT ( 'detailed design', #125, 'design' ) ;
#186 = PERSON_AND_ORGANIZATION_ROLE ( 'classification_officer' ) ;
#187 = CYLINDRICAL_SURFACE ( 'NONE', #195, 6.000000000000000888 ) ;
#188 = APPROVAL_STATUS ( 'not_yet_approved' ) ;
#189 = PLANE ( 'NONE',  #68 ) ;
#190 = CC_DESIGN_PERSON_AND_ORGANIZATION_ASSIGNMENT ( #8, #207, ( #96 ) ) ;
#191 = VERTEX_POINT ( 'NONE', #29 ) ;
#192 = AXIS2_PLACEMENT_3D ( 'NONE', #154, #134, #34 ) ;
#193 = CALENDAR_DATE ( 2023, 13, 2 ) ;
#194 = VERTEX_POINT ( 'NONE', #71 ) ;
#195 = AXIS2_PLACEMENT_3D ( 'NONE', #95, #152, #231 ) ;
#196 = COORDINATED_UNIVERSAL_TIME_OFFSET ( 1, 0, .AHEAD. ) ;
#197 = EDGE_CURVE ( 'NONE', #13, #194, #79, .T. ) ;
#198 = ORIENTED_EDGE ( 'NONE', *, *, #173, .F. ) ;
#199 = VERTEX_POINT ( 'NONE', #229 ) ;
#200 = CIRCLE ( 'NONE', #212, 3.100000000000000089 ) ;
#201 = DIRECTION ( 'NONE',  ( -1.000000000000000000, 0.000000000000000000, 0.000000000000000000 ) ) ;
#202 = MECHANICAL_CONTEXT ( 'NONE', #10, 'mechanical' ) ;
#203 = LOCAL_TIME ( 16, 18, 24.00000000000000000, #196 ) ;
#204 = MANIFOLD_SOLID_BREP ( 'Pøidat vysunutím3', #109 ) ;
#205 = APPROVAL_DATE_TIME ( #149, #183 ) ;
#206 = CARTESIAN_POINT ( 'NONE',  ( 0.000000000000000000, 0.000000000000000000, 0.000000000000000000 ) ) ;
#207 = PERSON_AND_ORGANIZATION_ROLE ( 'creator' ) ;
#208 = DIRECTION ( 'NONE',  ( 0.000000000000000000, 0.000000000000000000, 1.000000000000000000 ) ) ;
#209 = CC_DESIGN_PERSON_AND_ORGANIZATION_ASSIGNMENT ( #30, #49, ( #96 ) ) ;
#210 = DIRECTION ( 'NONE',  ( 1.000000000000000000, 0.000000000000000000, 0.000000000000000000 ) ) ;
#211 = CC_DESIGN_PERSON_AND_ORGANIZATION_ASSIGNMENT ( #219, #124, ( #130 ) ) ;
#212 = AXIS2_PLACEMENT_3D ( 'NONE', #132, #208, #210 ) ;
#213 = DIRECTION ( 'NONE',  ( -0.000000000000000000, -0.000000000000000000, -1.000000000000000000 ) ) ;
#214 = COORDINATED_UNIVERSAL_TIME_OFFSET ( 1, 0, .AHEAD. ) ;
#215 = EDGE_LOOP ( 'NONE', ( #239, #15 ) ) ;
#216 = CYLINDRICAL_SURFACE ( 'NONE', #47, 6.000000000000000888 ) ;
#217 = DATE_AND_TIME ( #193, #58 ) ;
#218 = ORGANIZATION ( 'NEURÈENÝ', 'NEURÈENÝ', '' ) ;
#219 = PERSON_AND_ORGANIZATION ( #128, #218 ) ;
#220 = APPROVAL ( #53, 'NEURÈENÝ' ) ;
#221 = CYLINDRICAL_SURFACE ( 'NONE', #84, 3.100000000000000089 ) ;
#222 = DIRECTION ( 'NONE',  ( 1.000000000000000000, 0.000000000000000000, 0.000000000000000000 ) ) ;
#223 = DIRECTION ( 'NONE',  ( -0.000000000000000000, -0.000000000000000000, -1.000000000000000000 ) ) ;
#224 = ORIENTED_EDGE ( 'NONE', *, *, #136, .F. ) ;
#225 = AXIS2_PLACEMENT_3D ( 'NONE', #63, #57, #41 ) ;
#226 = SECURITY_CLASSIFICATION_LEVEL ( 'unclassified' ) ;
#227 = DIRECTION ( 'NONE',  ( -0.000000000000000000, -0.000000000000000000, -1.000000000000000000 ) ) ;
#228 = FACE_OUTER_BOUND ( 'NONE', #21, .T. ) ;
#229 = CARTESIAN_POINT ( 'NONE',  ( -3.100000000000000089, 0.000000000000000000, 800.0000000000000000 ) ) ;
#230 = PERSON_AND_ORGANIZATION ( #128, #218 ) ;
#231 = DIRECTION ( 'NONE',  ( -1.000000000000000000, 0.000000000000000000, 0.000000000000000000 ) ) ;
#232 = ADVANCED_BREP_SHAPE_REPRESENTATION ( '249a', ( #204, #39 ), #241 ) ;
#233 = DATE_AND_TIME ( #110, #12 ) ;
#234 = CARTESIAN_POINT ( 'NONE',  ( 0.000000000000000000, 0.000000000000000000, 0.000000000000000000 ) ) ;
#235 = ORIENTED_EDGE ( 'NONE', *, *, #77, .F. ) ;
#236 = CARTESIAN_POINT ( 'NONE',  ( -3.100000000000000089, 0.000000000000000000, 800.0000000000000000 ) ) ;
#237 = CC_DESIGN_APPROVAL ( #220, ( #96 ) ) ;
#238 = DATE_AND_TIME ( #61, #203 ) ;
#239 = ORIENTED_EDGE ( 'NONE', *, *, #164, .F. ) ;
#240 = ADVANCED_FACE ( 'NONE', ( #116 ), #187, .T. ) ;
#241 =( GEOMETRIC_REPRESENTATION_CONTEXT ( 3 ) GLOBAL_UNCERTAINTY_ASSIGNED_CONTEXT ( ( #122 ) ) GLOBAL_UNIT_ASSIGNED_CONTEXT ( ( #119, #97, #6 ) ) REPRESENTATION_CONTEXT ( 'NONE', 'WORKASPACE' ) );
#242 = PRODUCT ( '249a', '249a', '', ( #202 ) ) ;
#243 = CARTESIAN_POINT ( 'NONE',  ( 0.000000000000000000, 0.000000000000000000, 800.0000000000000000 ) ) ;
#244 = PERSON_AND_ORGANIZATION ( #128, #218 ) ;
#245 = APPROVAL ( #188, 'NEURÈENÝ' ) ;
#246 = LOCAL_TIME ( 16, 18, 24.00000000000000000, #157 ) ;
#247 = AXIS2_PLACEMENT_3D ( 'NONE', #174, #14, #222 ) ;
#248 = APPROVAL_DATE_TIME ( #171, #220 ) ;
#249 = CC_DESIGN_PERSON_AND_ORGANIZATION_ASSIGNMENT ( #251, #76, ( #242 ) ) ;
#250 = CIRCLE ( 'NONE', #247, 3.100000000000000089 ) ;
#251 = PERSON_AND_ORGANIZATION ( #128, #218 ) ;
#252 = DIRECTION ( 'NONE',  ( -1.000000000000000000, 0.000000000000000000, 0.000000000000000000 ) ) ;
#253 = EDGE_LOOP ( 'NONE', ( #102, #135 ) ) ;
#254 = CIRCLE ( 'NONE', #192, 6.000000000000000888 ) ;
#255 = DIRECTION ( 'NONE',  ( 0.000000000000000000, 0.000000000000000000, 1.000000000000000000 ) ) ;
ENDSEC;
END-ISO-10303-21;
