ISO-10303-21;
HEADER;
FILE_DESCRIPTION (( 'STEP AP203' ),
    '1' );
FILE_NAME ('9663.STEP',
    '2023-02-13T14:47:13',
    ( '' ),
    ( '' ),
    'SwSTEP 2.0',
    'SolidWorks 2019',
    '' );
FILE_SCHEMA (( 'CONFIG_CONTROL_DESIGN' ));
ENDSEC;

DATA;
#1 = AXIS2_PLACEMENT_3D ( 'NONE', #151, #17, #250 ) ;
#2 = PRODUCT_DEFINITION ( 'NEZNÁMÝ', '', #245, #187 ) ;
#3 = CARTESIAN_POINT ( 'NONE',  ( 0.000000000000000000, 0.000000000000000000, 5.000000000000000000 ) ) ;
#4 = ORIENTED_EDGE ( 'NONE', *, *, #142, .F. ) ;
#5 = APPROVAL_STATUS ( 'not_yet_approved' ) ;
#6 = VERTEX_POINT ( 'NONE', #192 ) ;
#7 = CC_DESIGN_PERSON_AND_ORGANIZATION_ASSIGNMENT ( #12, #183, ( #180 ) ) ;
#8 = CC_DESIGN_SECURITY_CLASSIFICATION ( #158, ( #245 ) ) ;
#9 = UNCERTAINTY_MEASURE_WITH_UNIT (LENGTH_MEASURE( 1.000000000000000082E-05 ), #75, 'distance_accuracy_value', 'NONE');
#10 = ORIENTED_EDGE ( 'NONE', *, *, #142, .T. ) ;
#11 = PERSON_AND_ORGANIZATION ( #24, #94 ) ;
#12 = PERSON_AND_ORGANIZATION ( #24, #94 ) ;
#13 = EDGE_CURVE ( 'NONE', #188, #39, #41, .T. ) ;
#14 = EDGE_LOOP ( 'NONE', ( #129, #68, #33, #182 ) ) ;
#15 = AXIS2_PLACEMENT_3D ( 'NONE', #45, #235, #138 ) ;
#16 = APPROVAL_STATUS ( 'not_yet_approved' ) ;
#17 = DIRECTION ( 'NONE',  ( -0.000000000000000000, -0.000000000000000000, -1.000000000000000000 ) ) ;
#18 = ADVANCED_FACE ( 'NONE', ( #132 ), #131, .T. ) ;
#19 = DATE_TIME_ROLE ( 'classification_date' ) ;
#20 = DIRECTION ( 'NONE',  ( 1.000000000000000000, 0.000000000000000000, 0.000000000000000000 ) ) ;
#21 = CC_DESIGN_APPROVAL ( #85, ( #2 ) ) ;
#22 = CARTESIAN_POINT ( 'NONE',  ( -6.000000000000000888, 0.000000000000000000, 5.000000000000000000 ) ) ;
#23 = FACE_OUTER_BOUND ( 'NONE', #47, .T. ) ;
#24 = PERSON ( 'NEURÈENÝ', 'NEURÈENÝ', 'NEURÈENÝ', ('NEURÈENÝ'), ('NEURÈENÝ'), ('NEURÈENÝ') ) ;
#25 = DIRECTION ( 'NONE',  ( 0.000000000000000000, 0.000000000000000000, 1.000000000000000000 ) ) ;
#26 = CYLINDRICAL_SURFACE ( 'NONE', #169, 3.750000000000000000 ) ;
#27 = DIRECTION ( 'NONE',  ( -0.000000000000000000, -0.000000000000000000, -1.000000000000000000 ) ) ;
#28 = DIRECTION ( 'NONE',  ( -1.000000000000000000, 0.000000000000000000, 0.000000000000000000 ) ) ;
#29 = ORIENTED_EDGE ( 'NONE', *, *, #220, .T. ) ;
#30 = COORDINATED_UNIVERSAL_TIME_OFFSET ( 1, 0, .AHEAD. ) ;
#31 = DATE_AND_TIME ( #70, #136 ) ;
#32 = CC_DESIGN_PERSON_AND_ORGANIZATION_ASSIGNMENT ( #108, #198, ( #158 ) ) ;
#33 = ORIENTED_EDGE ( 'NONE', *, *, #126, .T. ) ;
#34 = APPLICATION_CONTEXT ( 'configuration controlled 3d designs of mechanical parts and assemblies' ) ;
#35 = PERSON_AND_ORGANIZATION ( #24, #94 ) ;
#36 = ORIENTED_EDGE ( 'NONE', *, *, #226, .F. ) ;
#37 = CIRCLE ( 'NONE', #124, 6.000000000000000888 ) ;
#38 = DIRECTION ( 'NONE',  ( 0.000000000000000000, 0.000000000000000000, 1.000000000000000000 ) ) ;
#39 = VERTEX_POINT ( 'NONE', #150 ) ;
#40 = PERSON_AND_ORGANIZATION_ROLE ( 'creator' ) ;
#41 = LINE ( 'NONE', #22, #54 ) ;
#42 = DIRECTION ( 'NONE',  ( -0.000000000000000000, -0.000000000000000000, -1.000000000000000000 ) ) ;
#43 = VERTEX_POINT ( 'NONE', #249 ) ;
#44 = CARTESIAN_POINT ( 'NONE',  ( 0.000000000000000000, 0.000000000000000000, 5.000000000000000000 ) ) ;
#45 = CARTESIAN_POINT ( 'NONE',  ( 0.000000000000000000, 0.000000000000000000, 5.000000000000000000 ) ) ;
#46 = DIRECTION ( 'NONE',  ( 1.000000000000000000, 0.000000000000000000, 0.000000000000000000 ) ) ;
#47 = EDGE_LOOP ( 'NONE', ( #109, #106 ) ) ;
#48 = CARTESIAN_POINT ( 'NONE',  ( -6.000000000000000888, 0.000000000000000000, 5.000000000000000000 ) ) ;
#49 = ADVANCED_BREP_SHAPE_REPRESENTATION ( '9663', ( #77, #78 ), #176 ) ;
#50 = LOCAL_TIME ( 15, 47, 13.00000000000000000, #127 ) ;
#51 = SECURITY_CLASSIFICATION_LEVEL ( 'unclassified' ) ;
#52 = ORIENTED_EDGE ( 'NONE', *, *, #116, .F. ) ;
#53 = COORDINATED_UNIVERSAL_TIME_OFFSET ( 1, 0, .AHEAD. ) ;
#54 = VECTOR ( 'NONE', #224, 1000.000000000000000 ) ;
#55 = VERTEX_POINT ( 'NONE', #206 ) ;
#56 = EDGE_CURVE ( 'NONE', #80, #221, #152, .T. ) ;
#57 = PERSON_AND_ORGANIZATION_ROLE ( 'design_supplier' ) ;
#58 = EDGE_LOOP ( 'NONE', ( #4, #144, #29, #219 ) ) ;
#59 = AXIS2_PLACEMENT_3D ( 'NONE', #120, #231, #63 ) ;
#60 = VECTOR ( 'NONE', #86, 1000.000000000000000 ) ;
#61 = ORIENTED_EDGE ( 'NONE', *, *, #252, .F. ) ;
#62 = CARTESIAN_POINT ( 'NONE',  ( 0.000000000000000000, 0.000000000000000000, 160.0000000000000000 ) ) ;
#63 = DIRECTION ( 'NONE',  ( 1.000000000000000000, 0.000000000000000000, 0.000000000000000000 ) ) ;
#64 = CARTESIAN_POINT ( 'NONE',  ( 0.000000000000000000, 0.000000000000000000, 5.000000000000000000 ) ) ;
#65 = CARTESIAN_POINT ( 'NONE',  ( 0.000000000000000000, 0.000000000000000000, 0.000000000000000000 ) ) ;
#66 = DIRECTION ( 'NONE',  ( 0.000000000000000000, 0.000000000000000000, 1.000000000000000000 ) ) ;
#67 = DIRECTION ( 'NONE',  ( 0.000000000000000000, 0.000000000000000000, 1.000000000000000000 ) ) ;
#68 = ORIENTED_EDGE ( 'NONE', *, *, #56, .F. ) ;
#69 = AXIS2_PLACEMENT_3D ( 'NONE', #154, #210, #215 ) ;
#70 = CALENDAR_DATE ( 2023, 13, 2 ) ;
#71 = AXIS2_PLACEMENT_3D ( 'NONE', #143, #104, #141 ) ;
#72 = EDGE_LOOP ( 'NONE', ( #36, #76 ) ) ;
#73 = AXIS2_PLACEMENT_3D ( 'NONE', #64, #87, #119 ) ;
#74 = ORIENTED_EDGE ( 'NONE', *, *, #13, .F. ) ;
#75 =( LENGTH_UNIT ( ) NAMED_UNIT ( * ) SI_UNIT ( .MILLI., .METRE. ) );
#76 = ORIENTED_EDGE ( 'NONE', *, *, #220, .F. ) ;
#77 = MANIFOLD_SOLID_BREP ( 'Pøidat vysunutím3', #216 ) ;
#78 = AXIS2_PLACEMENT_3D ( 'NONE', #125, #38, #90 ) ;
#79 = PERSON_AND_ORGANIZATION_ROLE ( 'creator' ) ;
#80 = VERTEX_POINT ( 'NONE', #137 ) ;
#81 = APPROVAL_PERSON_ORGANIZATION ( #149, #98, #191 ) ;
#82 = LINE ( 'NONE', #140, #202 ) ;
#83 = APPROVAL_PERSON_ORGANIZATION ( #35, #134, #95 ) ;
#84 = CYLINDRICAL_SURFACE ( 'NONE', #174, 3.750000000000000000 ) ;
#85 = APPROVAL ( #148, 'NEURÈENÝ' ) ;
#86 = DIRECTION ( 'NONE',  ( -0.000000000000000000, -0.000000000000000000, -1.000000000000000000 ) ) ;
#87 = DIRECTION ( 'NONE',  ( 0.000000000000000000, 0.000000000000000000, 1.000000000000000000 ) ) ;
#88 = APPROVAL_PERSON_ORGANIZATION ( #11, #85, #237 ) ;
#89 = CARTESIAN_POINT ( 'NONE',  ( 0.000000000000000000, 0.000000000000000000, 0.000000000000000000 ) ) ;
#90 = DIRECTION ( 'NONE',  ( 1.000000000000000000, 0.000000000000000000, 0.000000000000000000 ) ) ;
#91 = ORIENTED_EDGE ( 'NONE', *, *, #118, .F. ) ;
#92 = AXIS2_PLACEMENT_3D ( 'NONE', #99, #159, #101 ) ;
#93 =( NAMED_UNIT ( * ) PLANE_ANGLE_UNIT ( ) SI_UNIT ( $, .RADIAN. ) );
#94 = ORGANIZATION ( 'NEURÈENÝ', 'NEURÈENÝ', '' ) ;
#95 = APPROVAL_ROLE ( '' ) ;
#96 = EDGE_LOOP ( 'NONE', ( #161, #241, #214, #74 ) ) ;
#97 = CALENDAR_DATE ( 2023, 13, 2 ) ;
#98 = APPROVAL ( #16, 'NEURÈENÝ' ) ;
#99 = CARTESIAN_POINT ( 'NONE',  ( 0.000000000000000000, 0.000000000000000000, 5.000000000000000000 ) ) ;
#100 = PRODUCT_DEFINITION_SHAPE ( 'NONE', 'NONE',  #2 ) ;
#101 = DIRECTION ( 'NONE',  ( 1.000000000000000000, 0.000000000000000000, -0.000000000000000000 ) ) ;
#102 = ADVANCED_FACE ( 'NONE', ( #189 ), #251, .F. ) ;
#103 = LINE ( 'NONE', #171, #60 ) ;
#104 = DIRECTION ( 'NONE',  ( 0.000000000000000000, 0.000000000000000000, 1.000000000000000000 ) ) ;
#105 = DIRECTION ( 'NONE',  ( -1.000000000000000000, 0.000000000000000000, 0.000000000000000000 ) ) ;
#106 = ORIENTED_EDGE ( 'NONE', *, *, #179, .T. ) ;
#107 = AXIS2_PLACEMENT_3D ( 'NONE', #89, #67, #163 ) ;
#108 = PERSON_AND_ORGANIZATION ( #24, #94 ) ;
#109 = ORIENTED_EDGE ( 'NONE', *, *, #116, .T. ) ;
#110 = ORIENTED_EDGE ( 'NONE', *, *, #56, .T. ) ;
#111 = CC_DESIGN_PERSON_AND_ORGANIZATION_ASSIGNMENT ( #236, #79, ( #245 ) ) ;
#112 = CIRCLE ( 'NONE', #15, 3.750000000000000000 ) ;
#113 = CALENDAR_DATE ( 2023, 13, 2 ) ;
#114 = DATE_AND_TIME ( #160, #247 ) ;
#115 = EDGE_LOOP ( 'NONE', ( #61, #184 ) ) ;
#116 = EDGE_CURVE ( 'NONE', #188, #238, #164, .T. ) ;
#117 = LOCAL_TIME ( 15, 47, 13.00000000000000000, #135 ) ;
#118 = EDGE_CURVE ( 'NONE', #238, #43, #82, .T. ) ;
#119 = DIRECTION ( 'NONE',  ( 1.000000000000000000, 0.000000000000000000, 0.000000000000000000 ) ) ;
#120 = CARTESIAN_POINT ( 'NONE',  ( 0.000000000000000000, 0.000000000000000000, 5.000000000000000000 ) ) ;
#121 = CARTESIAN_POINT ( 'NONE',  ( 3.750000000000000000, 4.592425496802573972E-16, 160.0000000000000000 ) ) ;
#122 = CYLINDRICAL_SURFACE ( 'NONE', #233, 6.000000000000000888 ) ;
#123 = CARTESIAN_POINT ( 'NONE',  ( 0.000000000000000000, 0.000000000000000000, 0.000000000000000000 ) ) ;
#124 = AXIS2_PLACEMENT_3D ( 'NONE', #65, #66, #230 ) ;
#125 = CARTESIAN_POINT ( 'NONE',  ( 0.000000000000000000, 0.000000000000000000, 0.000000000000000000 ) ) ;
#126 = EDGE_CURVE ( 'NONE', #80, #55, #173, .T. ) ;
#127 = COORDINATED_UNIVERSAL_TIME_OFFSET ( 1, 0, .AHEAD. ) ;
#128 = DATE_AND_TIME ( #199, #209 ) ;
#129 = ORIENTED_EDGE ( 'NONE', *, *, #239, .F. ) ;
#130 = CIRCLE ( 'NONE', #59, 6.000000000000000888 ) ;
#131 = CYLINDRICAL_SURFACE ( 'NONE', #1, 6.000000000000000888 ) ;
#132 = FACE_OUTER_BOUND ( 'NONE', #96, .T. ) ;
#133 = APPROVAL_DATE_TIME ( #207, #98 ) ;
#134 = APPROVAL ( #5, 'NEURÈENÝ' ) ;
#135 = COORDINATED_UNIVERSAL_TIME_OFFSET ( 1, 0, .AHEAD. ) ;
#136 = LOCAL_TIME ( 15, 47, 13.00000000000000000, #30 ) ;
#137 = CARTESIAN_POINT ( 'NONE',  ( -3.750000000000000000, 0.000000000000000000, 160.0000000000000000 ) ) ;
#138 = DIRECTION ( 'NONE',  ( 1.000000000000000000, 0.000000000000000000, 0.000000000000000000 ) ) ;
#139 = DIRECTION ( 'NONE',  ( -1.000000000000000000, 0.000000000000000000, 0.000000000000000000 ) ) ;
#140 = CARTESIAN_POINT ( 'NONE',  ( 6.000000000000000888, 7.347880794884120722E-16, 5.000000000000000000 ) ) ;
#141 = DIRECTION ( 'NONE',  ( 1.000000000000000000, 0.000000000000000000, 0.000000000000000000 ) ) ;
#142 = EDGE_CURVE ( 'NONE', #221, #80, #147, .T. ) ;
#143 = CARTESIAN_POINT ( 'NONE',  ( 0.000000000000000000, 0.000000000000000000, 160.0000000000000000 ) ) ;
#144 = ORIENTED_EDGE ( 'NONE', *, *, #239, .T. ) ;
#145 = CC_DESIGN_PERSON_AND_ORGANIZATION_ASSIGNMENT ( #223, #57, ( #245 ) ) ;
#146 = PERSON_AND_ORGANIZATION ( #24, #94 ) ;
#147 = CIRCLE ( 'NONE', #71, 3.750000000000000000 ) ;
#148 = APPROVAL_STATUS ( 'not_yet_approved' ) ;
#149 = PERSON_AND_ORGANIZATION ( #24, #94 ) ;
#150 = CARTESIAN_POINT ( 'NONE',  ( -6.000000000000000888, 0.000000000000000000, 0.000000000000000000 ) ) ;
#151 = CARTESIAN_POINT ( 'NONE',  ( 0.000000000000000000, 0.000000000000000000, 5.000000000000000000 ) ) ;
#152 = CIRCLE ( 'NONE', #232, 3.750000000000000000 ) ;
#153 = ADVANCED_FACE ( 'NONE', ( #170 ), #196, .T. ) ;
#154 = CARTESIAN_POINT ( 'NONE',  ( 0.000000000000000000, 0.000000000000000000, 160.0000000000000000 ) ) ;
#155 = FACE_BOUND ( 'NONE', #72, .T. ) ;
#156 = CC_DESIGN_DATE_AND_TIME_ASSIGNMENT ( #114, #185, ( #2 ) ) ;
#157 = DIRECTION ( 'NONE',  ( 0.000000000000000000, 0.000000000000000000, 1.000000000000000000 ) ) ;
#158 = SECURITY_CLASSIFICATION ( '', '', #51 ) ;
#159 = DIRECTION ( 'NONE',  ( 0.000000000000000000, 0.000000000000000000, 1.000000000000000000 ) ) ;
#160 = CALENDAR_DATE ( 2023, 13, 2 ) ;
#161 = ORIENTED_EDGE ( 'NONE', *, *, #179, .F. ) ;
#162 = CC_DESIGN_PERSON_AND_ORGANIZATION_ASSIGNMENT ( #146, #40, ( #2 ) ) ;
#163 = DIRECTION ( 'NONE',  ( 1.000000000000000000, 0.000000000000000000, 0.000000000000000000 ) ) ;
#164 = CIRCLE ( 'NONE', #186, 6.000000000000000888 ) ;
#165 = DATE_AND_TIME ( #113, #50 ) ;
#166 = CC_DESIGN_APPROVAL ( #98, ( #158 ) ) ;
#167 = SHAPE_DEFINITION_REPRESENTATION ( #100, #49 ) ;
#168 = VECTOR ( 'NONE', #228, 1000.000000000000000 ) ;
#169 = AXIS2_PLACEMENT_3D ( 'NONE', #175, #27, #105 ) ;
#170 = FACE_OUTER_BOUND ( 'NONE', #197, .T. ) ;
#171 = CARTESIAN_POINT ( 'NONE',  ( 3.750000000000000000, 4.592425496802573972E-16, 160.0000000000000000 ) ) ;
#172 = ADVANCED_FACE ( 'NONE', ( #194 ), #84, .T. ) ;
#173 = LINE ( 'NONE', #195, #168 ) ;
#174 = AXIS2_PLACEMENT_3D ( 'NONE', #212, #42, #139 ) ;
#175 = CARTESIAN_POINT ( 'NONE',  ( 0.000000000000000000, 0.000000000000000000, 160.0000000000000000 ) ) ;
#176 =( GEOMETRIC_REPRESENTATION_CONTEXT ( 3 ) GLOBAL_UNCERTAINTY_ASSIGNED_CONTEXT ( ( #9 ) ) GLOBAL_UNIT_ASSIGNED_CONTEXT ( ( #75, #93, #178 ) ) REPRESENTATION_CONTEXT ( 'NONE', 'WORKASPACE' ) );
#177 = ORIENTED_EDGE ( 'NONE', *, *, #252, .T. ) ;
#178 =( NAMED_UNIT ( * ) SI_UNIT ( $, .STERADIAN. ) SOLID_ANGLE_UNIT ( ) );
#179 = EDGE_CURVE ( 'NONE', #238, #188, #130, .T. ) ;
#180 = PRODUCT ( '9663', '9663', '', ( #217 ) ) ;
#181 = COORDINATED_UNIVERSAL_TIME_OFFSET ( 1, 0, .AHEAD. ) ;
#182 = ORIENTED_EDGE ( 'NONE', *, *, #226, .T. ) ;
#183 = PERSON_AND_ORGANIZATION_ROLE ( 'design_owner' ) ;
#184 = ORIENTED_EDGE ( 'NONE', *, *, #203, .F. ) ;
#185 = DATE_TIME_ROLE ( 'creation_date' ) ;
#186 = AXIS2_PLACEMENT_3D ( 'NONE', #3, #157, #46 ) ;
#187 = DESIGN_CONTEXT ( 'detailed design', #227, 'design' ) ;
#188 = VERTEX_POINT ( 'NONE', #48 ) ;
#189 = FACE_OUTER_BOUND ( 'NONE', #115, .T. ) ;
#190 = ADVANCED_FACE ( 'NONE', ( #155, #23 ), #254, .T. ) ;
#191 = APPROVAL_ROLE ( '' ) ;
#192 = CARTESIAN_POINT ( 'NONE',  ( 3.750000000000000000, 4.592425496802573972E-16, 5.000000000000000000 ) ) ;
#193 = CARTESIAN_POINT ( 'NONE',  ( 6.000000000000000888, 7.347880794884120722E-16, 5.000000000000000000 ) ) ;
#194 = FACE_OUTER_BOUND ( 'NONE', #14, .T. ) ;
#195 = CARTESIAN_POINT ( 'NONE',  ( -3.750000000000000000, 0.000000000000000000, 160.0000000000000000 ) ) ;
#196 = PLANE ( 'NONE',  #69 ) ;
#197 = EDGE_LOOP ( 'NONE', ( #110, #10 ) ) ;
#198 = PERSON_AND_ORGANIZATION_ROLE ( 'classification_officer' ) ;
#199 = CALENDAR_DATE ( 2023, 13, 2 ) ;
#200 = ADVANCED_FACE ( 'NONE', ( #234 ), #26, .T. ) ;
#201 = APPROVAL_DATE_TIME ( #128, #85 ) ;
#202 = VECTOR ( 'NONE', #253, 1000.000000000000000 ) ;
#203 = EDGE_CURVE ( 'NONE', #43, #39, #37, .T. ) ;
#204 = DIRECTION ( 'NONE',  ( 0.000000000000000000, 0.000000000000000000, 1.000000000000000000 ) ) ;
#205 = CIRCLE ( 'NONE', #107, 6.000000000000000888 ) ;
#206 = CARTESIAN_POINT ( 'NONE',  ( -3.750000000000000000, 0.000000000000000000, 5.000000000000000000 ) ) ;
#207 = DATE_AND_TIME ( #97, #117 ) ;
#208 = PRODUCT_RELATED_PRODUCT_CATEGORY ( 'detail', '', ( #180 ) ) ;
#209 = LOCAL_TIME ( 15, 47, 13.00000000000000000, #181 ) ;
#210 = DIRECTION ( 'NONE',  ( 0.000000000000000000, 0.000000000000000000, 1.000000000000000000 ) ) ;
#211 = FACE_OUTER_BOUND ( 'NONE', #243, .T. ) ;
#212 = CARTESIAN_POINT ( 'NONE',  ( 0.000000000000000000, 0.000000000000000000, 160.0000000000000000 ) ) ;
#213 = DIRECTION ( 'NONE',  ( -0.000000000000000000, -0.000000000000000000, -1.000000000000000000 ) ) ;
#214 = ORIENTED_EDGE ( 'NONE', *, *, #203, .T. ) ;
#215 = DIRECTION ( 'NONE',  ( 1.000000000000000000, 0.000000000000000000, -0.000000000000000000 ) ) ;
#216 = CLOSED_SHELL ( 'NONE', ( #200, #18, #229, #190, #102, #172, #153 ) ) ;
#217 = MECHANICAL_CONTEXT ( 'NONE', #34, 'mechanical' ) ;
#218 = CIRCLE ( 'NONE', #73, 3.750000000000000000 ) ;
#219 = ORIENTED_EDGE ( 'NONE', *, *, #126, .F. ) ;
#220 = EDGE_CURVE ( 'NONE', #6, #55, #112, .T. ) ;
#221 = VERTEX_POINT ( 'NONE', #121 ) ;
#222 = AXIS2_PLACEMENT_3D ( 'NONE', #123, #25, #255 ) ;
#223 = PERSON_AND_ORGANIZATION ( #24, #94 ) ;
#224 = DIRECTION ( 'NONE',  ( -0.000000000000000000, -0.000000000000000000, -1.000000000000000000 ) ) ;
#225 = CC_DESIGN_APPROVAL ( #134, ( #245 ) ) ;
#226 = EDGE_CURVE ( 'NONE', #55, #6, #218, .T. ) ;
#227 = APPLICATION_CONTEXT ( 'configuration controlled 3d designs of mechanical parts and assemblies' ) ;
#228 = DIRECTION ( 'NONE',  ( -0.000000000000000000, -0.000000000000000000, -1.000000000000000000 ) ) ;
#229 = ADVANCED_FACE ( 'NONE', ( #211 ), #122, .T. ) ;
#230 = DIRECTION ( 'NONE',  ( 1.000000000000000000, 0.000000000000000000, 0.000000000000000000 ) ) ;
#231 = DIRECTION ( 'NONE',  ( 0.000000000000000000, 0.000000000000000000, 1.000000000000000000 ) ) ;
#232 = AXIS2_PLACEMENT_3D ( 'NONE', #62, #204, #20 ) ;
#233 = AXIS2_PLACEMENT_3D ( 'NONE', #44, #213, #28 ) ;
#234 = FACE_OUTER_BOUND ( 'NONE', #58, .T. ) ;
#235 = DIRECTION ( 'NONE',  ( 0.000000000000000000, 0.000000000000000000, 1.000000000000000000 ) ) ;
#236 = PERSON_AND_ORGANIZATION ( #24, #94 ) ;
#237 = APPROVAL_ROLE ( '' ) ;
#238 = VERTEX_POINT ( 'NONE', #193 ) ;
#239 = EDGE_CURVE ( 'NONE', #221, #6, #103, .T. ) ;
#240 = APPLICATION_PROTOCOL_DEFINITION ( 'international standard', 'config_control_design', 1994, #34 ) ;
#241 = ORIENTED_EDGE ( 'NONE', *, *, #118, .T. ) ;
#242 = APPLICATION_PROTOCOL_DEFINITION ( 'international standard', 'config_control_design', 1994, #227 ) ;
#243 = EDGE_LOOP ( 'NONE', ( #91, #52, #246, #177 ) ) ;
#244 = APPROVAL_DATE_TIME ( #165, #134 ) ;
#245 = PRODUCT_DEFINITION_FORMATION_WITH_SPECIFIED_SOURCE ( 'LIBOVOLNÝ', '', #180, .NOT_KNOWN. ) ;
#246 = ORIENTED_EDGE ( 'NONE', *, *, #13, .T. ) ;
#247 = LOCAL_TIME ( 15, 47, 13.00000000000000000, #53 ) ;
#248 = CC_DESIGN_DATE_AND_TIME_ASSIGNMENT ( #31, #19, ( #158 ) ) ;
#249 = CARTESIAN_POINT ( 'NONE',  ( 6.000000000000000888, 7.347880794884120722E-16, 0.000000000000000000 ) ) ;
#250 = DIRECTION ( 'NONE',  ( -1.000000000000000000, 0.000000000000000000, 0.000000000000000000 ) ) ;
#251 = PLANE ( 'NONE',  #222 ) ;
#252 = EDGE_CURVE ( 'NONE', #39, #43, #205, .T. ) ;
#253 = DIRECTION ( 'NONE',  ( -0.000000000000000000, -0.000000000000000000, -1.000000000000000000 ) ) ;
#254 = PLANE ( 'NONE',  #92 ) ;
#255 = DIRECTION ( 'NONE',  ( 1.000000000000000000, 0.000000000000000000, -0.000000000000000000 ) ) ;
ENDSEC;
END-ISO-10303-21;
