ISO-10303-21;
HEADER;
FILE_DESCRIPTION (( 'STEP AP203' ),
    '1' );
FILE_NAME ('2473.STEP',
    '2023-02-13T15:19:16',
    ( '' ),
    ( '' ),
    'SwSTEP 2.0',
    'SolidWorks 2019',
    '' );
FILE_SCHEMA (( 'CONFIG_CONTROL_DESIGN' ));
ENDSEC;

DATA;
#1 = PERSON_AND_ORGANIZATION_ROLE ( 'classification_officer' ) ;
#2 = CARTESIAN_POINT ( 'NONE',  ( 3.100000000000000089, 3.796405077356794918E-16, 315.0000000000000000 ) ) ;
#3 = VECTOR ( 'NONE', #209, 1000.000000000000000 ) ;
#4 = APPROVAL_ROLE ( '' ) ;
#5 = CARTESIAN_POINT ( 'NONE',  ( -6.000000000000000888, 0.000000000000000000, 5.000000000000000000 ) ) ;
#6 = FACE_OUTER_BOUND ( 'NONE', #128, .T. ) ;
#7 = ORIENTED_EDGE ( 'NONE', *, *, #125, .T. ) ;
#8 = ADVANCED_FACE ( 'NONE', ( #210 ), #61, .T. ) ;
#9 = LINE ( 'NONE', #14, #144 ) ;
#10 = VERTEX_POINT ( 'NONE', #115 ) ;
#11 = CARTESIAN_POINT ( 'NONE',  ( 6.000000000000000888, 7.347880794884120722E-16, 5.000000000000000000 ) ) ;
#12 = EDGE_LOOP ( 'NONE', ( #171, #111 ) ) ;
#13 =( NAMED_UNIT ( * ) SI_UNIT ( $, .STERADIAN. ) SOLID_ANGLE_UNIT ( ) );
#14 = CARTESIAN_POINT ( 'NONE',  ( -3.100000000000000089, 0.000000000000000000, 315.0000000000000000 ) ) ;
#15 = ADVANCED_BREP_SHAPE_REPRESENTATION ( '2473', ( #219, #34 ), #23 ) ;
#16 = DIRECTION ( 'NONE',  ( -0.000000000000000000, -0.000000000000000000, -1.000000000000000000 ) ) ;
#17 = APPROVAL_ROLE ( '' ) ;
#18 = CARTESIAN_POINT ( 'NONE',  ( 0.000000000000000000, 0.000000000000000000, 315.0000000000000000 ) ) ;
#19 = AXIS2_PLACEMENT_3D ( 'NONE', #18, #157, #154 ) ;
#20 = AXIS2_PLACEMENT_3D ( 'NONE', #196, #215, #99 ) ;
#21 = APPROVAL_DATE_TIME ( #163, #22 ) ;
#22 = APPROVAL ( #240, 'NEURÈENÝ' ) ;
#23 =( GEOMETRIC_REPRESENTATION_CONTEXT ( 3 ) GLOBAL_UNCERTAINTY_ASSIGNED_CONTEXT ( ( #184 ) ) GLOBAL_UNIT_ASSIGNED_CONTEXT ( ( #36, #169, #13 ) ) REPRESENTATION_CONTEXT ( 'NONE', 'WORKASPACE' ) );
#24 = COORDINATED_UNIVERSAL_TIME_OFFSET ( 1, 0, .AHEAD. ) ;
#25 = DIRECTION ( 'NONE',  ( -1.000000000000000000, 0.000000000000000000, 0.000000000000000000 ) ) ;
#26 = CARTESIAN_POINT ( 'NONE',  ( 0.000000000000000000, 0.000000000000000000, 5.000000000000000000 ) ) ;
#27 = PERSON_AND_ORGANIZATION_ROLE ( 'design_supplier' ) ;
#28 = CYLINDRICAL_SURFACE ( 'NONE', #151, 6.000000000000000888 ) ;
#29 = CIRCLE ( 'NONE', #222, 6.000000000000000888 ) ;
#30 = CC_DESIGN_PERSON_AND_ORGANIZATION_ASSIGNMENT ( #226, #27, ( #76 ) ) ;
#31 = PERSON ( 'NEURÈENÝ', 'NEURÈENÝ', 'NEURÈENÝ', ('NEURÈENÝ'), ('NEURÈENÝ'), ('NEURÈENÝ') ) ;
#32 = PRODUCT_DEFINITION_SHAPE ( 'NONE', 'NONE',  #182 ) ;
#33 = ADVANCED_FACE ( 'NONE', ( #95 ), #173, .F. ) ;
#34 = AXIS2_PLACEMENT_3D ( 'NONE', #139, #136, #107 ) ;
#35 = EDGE_LOOP ( 'NONE', ( #193, #7 ) ) ;
#36 =( LENGTH_UNIT ( ) NAMED_UNIT ( * ) SI_UNIT ( .MILLI., .METRE. ) );
#37 = ORIENTED_EDGE ( 'NONE', *, *, #68, .F. ) ;
#38 = VECTOR ( 'NONE', #97, 1000.000000000000000 ) ;
#39 = VERTEX_POINT ( 'NONE', #132 ) ;
#40 = ADVANCED_FACE ( 'NONE', ( #81 ), #83, .T. ) ;
#41 = APPLICATION_PROTOCOL_DEFINITION ( 'international standard', 'config_control_design', 1994, #142 ) ;
#42 = EDGE_LOOP ( 'NONE', ( #148, #94, #167, #112 ) ) ;
#43 = LINE ( 'NONE', #251, #38 ) ;
#44 = CIRCLE ( 'NONE', #20, 3.100000000000000089 ) ;
#45 = AXIS2_PLACEMENT_3D ( 'NONE', #249, #150, #234 ) ;
#46 = EDGE_CURVE ( 'NONE', #10, #90, #129, .T. ) ;
#47 = DIRECTION ( 'NONE',  ( -0.000000000000000000, -0.000000000000000000, -1.000000000000000000 ) ) ;
#48 = AXIS2_PLACEMENT_3D ( 'NONE', #102, #53, #89 ) ;
#49 = SECURITY_CLASSIFICATION_LEVEL ( 'unclassified' ) ;
#50 = EDGE_CURVE ( 'NONE', #39, #55, #44, .T. ) ;
#51 = PERSON_AND_ORGANIZATION ( #31, #216 ) ;
#52 = FACE_OUTER_BOUND ( 'NONE', #12, .T. ) ;
#53 = DIRECTION ( 'NONE',  ( -0.000000000000000000, -0.000000000000000000, -1.000000000000000000 ) ) ;
#54 = AXIS2_PLACEMENT_3D ( 'NONE', #187, #69, #84 ) ;
#55 = VERTEX_POINT ( 'NONE', #79 ) ;
#56 = DIRECTION ( 'NONE',  ( 0.000000000000000000, 0.000000000000000000, 1.000000000000000000 ) ) ;
#57 = ORIENTED_EDGE ( 'NONE', *, *, #125, .F. ) ;
#58 = ORIENTED_EDGE ( 'NONE', *, *, #230, .F. ) ;
#59 = CC_DESIGN_PERSON_AND_ORGANIZATION_ASSIGNMENT ( #51, #1, ( #109 ) ) ;
#60 = AXIS2_PLACEMENT_3D ( 'NONE', #176, #77, #67 ) ;
#61 = CYLINDRICAL_SURFACE ( 'NONE', #221, 3.100000000000000089 ) ;
#62 = PERSON_AND_ORGANIZATION_ROLE ( 'creator' ) ;
#63 = APPROVAL_STATUS ( 'not_yet_approved' ) ;
#64 = CIRCLE ( 'NONE', #254, 3.100000000000000089 ) ;
#65 = EDGE_CURVE ( 'NONE', #194, #90, #43, .T. ) ;
#66 = DIRECTION ( 'NONE',  ( -1.000000000000000000, 0.000000000000000000, 0.000000000000000000 ) ) ;
#67 = DIRECTION ( 'NONE',  ( 1.000000000000000000, 0.000000000000000000, 0.000000000000000000 ) ) ;
#68 = EDGE_CURVE ( 'NONE', #90, #10, #166, .T. ) ;
#69 = DIRECTION ( 'NONE',  ( 0.000000000000000000, 0.000000000000000000, 1.000000000000000000 ) ) ;
#70 = LOCAL_TIME ( 16, 19, 16.00000000000000000, #78 ) ;
#71 = ORIENTED_EDGE ( 'NONE', *, *, #68, .T. ) ;
#72 = VERTEX_POINT ( 'NONE', #243 ) ;
#73 = VERTEX_POINT ( 'NONE', #2 ) ;
#74 = AXIS2_PLACEMENT_3D ( 'NONE', #181, #204, #123 ) ;
#75 = ORIENTED_EDGE ( 'NONE', *, *, #153, .F. ) ;
#76 = PRODUCT_DEFINITION_FORMATION_WITH_SPECIFIED_SOURCE ( 'LIBOVOLNÝ', '', #217, .NOT_KNOWN. ) ;
#77 = DIRECTION ( 'NONE',  ( 0.000000000000000000, 0.000000000000000000, 1.000000000000000000 ) ) ;
#78 = COORDINATED_UNIVERSAL_TIME_OFFSET ( 1, 0, .AHEAD. ) ;
#79 = CARTESIAN_POINT ( 'NONE',  ( -3.100000000000000089, 0.000000000000000000, 5.000000000000000000 ) ) ;
#80 = APPROVAL_ROLE ( '' ) ;
#81 = FACE_OUTER_BOUND ( 'NONE', #35, .T. ) ;
#82 = ADVANCED_FACE ( 'NONE', ( #200, #52 ), #124, .T. ) ;
#83 = PLANE ( 'NONE',  #19 ) ;
#84 = DIRECTION ( 'NONE',  ( 1.000000000000000000, 0.000000000000000000, 0.000000000000000000 ) ) ;
#85 = EDGE_CURVE ( 'NONE', #233, #194, #198, .T. ) ;
#86 = CYLINDRICAL_SURFACE ( 'NONE', #160, 3.100000000000000089 ) ;
#87 = PERSON_AND_ORGANIZATION_ROLE ( 'creator' ) ;
#88 = CARTESIAN_POINT ( 'NONE',  ( 0.000000000000000000, 0.000000000000000000, 315.0000000000000000 ) ) ;
#89 = DIRECTION ( 'NONE',  ( -1.000000000000000000, 0.000000000000000000, 0.000000000000000000 ) ) ;
#90 = VERTEX_POINT ( 'NONE', #255 ) ;
#91 = DIRECTION ( 'NONE',  ( 1.000000000000000000, 0.000000000000000000, 0.000000000000000000 ) ) ;
#92 = ORIENTED_EDGE ( 'NONE', *, *, #225, .T. ) ;
#93 = CC_DESIGN_PERSON_AND_ORGANIZATION_ASSIGNMENT ( #161, #87, ( #76 ) ) ;
#94 = ORIENTED_EDGE ( 'NONE', *, *, #230, .T. ) ;
#95 = FACE_OUTER_BOUND ( 'NONE', #208, .T. ) ;
#96 = CALENDAR_DATE ( 2023, 13, 2 ) ;
#97 = DIRECTION ( 'NONE',  ( -0.000000000000000000, -0.000000000000000000, -1.000000000000000000 ) ) ;
#98 = PERSON_AND_ORGANIZATION ( #31, #216 ) ;
#99 = DIRECTION ( 'NONE',  ( 1.000000000000000000, 0.000000000000000000, 0.000000000000000000 ) ) ;
#100 = ADVANCED_FACE ( 'NONE', ( #108 ), #86, .T. ) ;
#101 = LOCAL_TIME ( 16, 19, 16.00000000000000000, #103 ) ;
#102 = CARTESIAN_POINT ( 'NONE',  ( 0.000000000000000000, 0.000000000000000000, 5.000000000000000000 ) ) ;
#103 = COORDINATED_UNIVERSAL_TIME_OFFSET ( 1, 0, .AHEAD. ) ;
#104 = LOCAL_TIME ( 16, 19, 16.00000000000000000, #156 ) ;
#105 = CARTESIAN_POINT ( 'NONE',  ( 0.000000000000000000, 0.000000000000000000, 5.000000000000000000 ) ) ;
#106 = DIRECTION ( 'NONE',  ( 1.000000000000000000, 0.000000000000000000, -0.000000000000000000 ) ) ;
#107 = DIRECTION ( 'NONE',  ( 1.000000000000000000, 0.000000000000000000, 0.000000000000000000 ) ) ;
#108 = FACE_OUTER_BOUND ( 'NONE', #232, .T. ) ;
#109 = SECURITY_CLASSIFICATION ( '', '', #49 ) ;
#110 = CARTESIAN_POINT ( 'NONE',  ( 6.000000000000000888, 7.347880794884120722E-16, 5.000000000000000000 ) ) ;
#111 = ORIENTED_EDGE ( 'NONE', *, *, #85, .T. ) ;
#112 = ORIENTED_EDGE ( 'NONE', *, *, #65, .F. ) ;
#113 = AXIS2_PLACEMENT_3D ( 'NONE', #88, #185, #205 ) ;
#114 = CC_DESIGN_DATE_AND_TIME_ASSIGNMENT ( #197, #122, ( #109 ) ) ;
#115 = CARTESIAN_POINT ( 'NONE',  ( 6.000000000000000888, 7.347880794884120722E-16, 0.000000000000000000 ) ) ;
#116 = APPROVAL_STATUS ( 'not_yet_approved' ) ;
#117 = DATE_AND_TIME ( #237, #104 ) ;
#118 = CC_DESIGN_APPROVAL ( #137, ( #76 ) ) ;
#119 = DIRECTION ( 'NONE',  ( 1.000000000000000000, 0.000000000000000000, 0.000000000000000000 ) ) ;
#120 = CARTESIAN_POINT ( 'NONE',  ( 0.000000000000000000, 0.000000000000000000, 0.000000000000000000 ) ) ;
#121 = AXIS2_PLACEMENT_3D ( 'NONE', #224, #241, #106 ) ;
#122 = DATE_TIME_ROLE ( 'classification_date' ) ;
#123 = DIRECTION ( 'NONE',  ( 1.000000000000000000, 0.000000000000000000, 0.000000000000000000 ) ) ;
#124 = PLANE ( 'NONE',  #121 ) ;
#125 = EDGE_CURVE ( 'NONE', #73, #72, #238, .T. ) ;
#126 = ORIENTED_EDGE ( 'NONE', *, *, #225, .F. ) ;
#127 = DIRECTION ( 'NONE',  ( -0.000000000000000000, -0.000000000000000000, -1.000000000000000000 ) ) ;
#128 = EDGE_LOOP ( 'NONE', ( #58, #170, #229, #71 ) ) ;
#129 = CIRCLE ( 'NONE', #135, 6.000000000000000888 ) ;
#130 = CARTESIAN_POINT ( 'NONE',  ( 0.000000000000000000, 0.000000000000000000, 315.0000000000000000 ) ) ;
#131 = PERSON_AND_ORGANIZATION ( #31, #216 ) ;
#132 = CARTESIAN_POINT ( 'NONE',  ( 3.100000000000000089, 3.796405077356794918E-16, 5.000000000000000000 ) ) ;
#133 = CALENDAR_DATE ( 2023, 13, 2 ) ;
#134 = DIRECTION ( 'NONE',  ( 0.000000000000000000, 0.000000000000000000, 1.000000000000000000 ) ) ;
#135 = AXIS2_PLACEMENT_3D ( 'NONE', #120, #134, #119 ) ;
#136 = DIRECTION ( 'NONE',  ( 0.000000000000000000, 0.000000000000000000, 1.000000000000000000 ) ) ;
#137 = APPROVAL ( #63, 'NEURÈENÝ' ) ;
#138 = LOCAL_TIME ( 16, 19, 16.00000000000000000, #24 ) ;
#139 = CARTESIAN_POINT ( 'NONE',  ( 0.000000000000000000, 0.000000000000000000, 0.000000000000000000 ) ) ;
#140 = PRODUCT_RELATED_PRODUCT_CATEGORY ( 'detail', '', ( #217 ) ) ;
#141 = CYLINDRICAL_SURFACE ( 'NONE', #48, 6.000000000000000888 ) ;
#142 = APPLICATION_CONTEXT ( 'configuration controlled 3d designs of mechanical parts and assemblies' ) ;
#143 = DESIGN_CONTEXT ( 'detailed design', #206, 'design' ) ;
#144 = VECTOR ( 'NONE', #227, 1000.000000000000000 ) ;
#145 = ORIENTED_EDGE ( 'NONE', *, *, #46, .F. ) ;
#146 = VECTOR ( 'NONE', #127, 1000.000000000000000 ) ;
#147 = CARTESIAN_POINT ( 'NONE',  ( 3.100000000000000089, 3.796405077356794918E-16, 315.0000000000000000 ) ) ;
#148 = ORIENTED_EDGE ( 'NONE', *, *, #85, .F. ) ;
#149 = ORIENTED_EDGE ( 'NONE', *, *, #50, .F. ) ;
#150 = DIRECTION ( 'NONE',  ( 0.000000000000000000, 0.000000000000000000, 1.000000000000000000 ) ) ;
#151 = AXIS2_PLACEMENT_3D ( 'NONE', #26, #159, #66 ) ;
#152 = COORDINATED_UNIVERSAL_TIME_OFFSET ( 1, 0, .AHEAD. ) ;
#153 = EDGE_CURVE ( 'NONE', #72, #73, #195, .T. ) ;
#154 = DIRECTION ( 'NONE',  ( 1.000000000000000000, 0.000000000000000000, -0.000000000000000000 ) ) ;
#155 = DATE_AND_TIME ( #133, #70 ) ;
#156 = COORDINATED_UNIVERSAL_TIME_OFFSET ( 1, 0, .AHEAD. ) ;
#157 = DIRECTION ( 'NONE',  ( 0.000000000000000000, 0.000000000000000000, 1.000000000000000000 ) ) ;
#158 = CC_DESIGN_DATE_AND_TIME_ASSIGNMENT ( #155, #236, ( #182 ) ) ;
#159 = DIRECTION ( 'NONE',  ( -0.000000000000000000, -0.000000000000000000, -1.000000000000000000 ) ) ;
#160 = AXIS2_PLACEMENT_3D ( 'NONE', #202, #47, #25 ) ;
#161 = PERSON_AND_ORGANIZATION ( #31, #216 ) ;
#162 = FACE_OUTER_BOUND ( 'NONE', #42, .T. ) ;
#163 = DATE_AND_TIME ( #223, #138 ) ;
#164 = DIRECTION ( 'NONE',  ( 0.000000000000000000, 0.000000000000000000, 1.000000000000000000 ) ) ;
#165 = APPROVAL ( #116, 'NEURÈENÝ' ) ;
#166 = CIRCLE ( 'NONE', #60, 6.000000000000000888 ) ;
#167 = ORIENTED_EDGE ( 'NONE', *, *, #46, .T. ) ;
#168 = EDGE_LOOP ( 'NONE', ( #248, #149 ) ) ;
#169 =( NAMED_UNIT ( * ) PLANE_ANGLE_UNIT ( ) SI_UNIT ( $, .RADIAN. ) );
#170 = ORIENTED_EDGE ( 'NONE', *, *, #253, .F. ) ;
#171 = ORIENTED_EDGE ( 'NONE', *, *, #253, .T. ) ;
#172 = CC_DESIGN_PERSON_AND_ORGANIZATION_ASSIGNMENT ( #131, #213, ( #217 ) ) ;
#173 = PLANE ( 'NONE',  #45 ) ;
#174 = CLOSED_SHELL ( 'NONE', ( #8, #188, #201, #82, #33, #100, #40 ) ) ;
#175 = APPLICATION_PROTOCOL_DEFINITION ( 'international standard', 'config_control_design', 1994, #206 ) ;
#176 = CARTESIAN_POINT ( 'NONE',  ( 0.000000000000000000, 0.000000000000000000, 0.000000000000000000 ) ) ;
#177 = PERSON_AND_ORGANIZATION ( #31, #216 ) ;
#178 = LOCAL_TIME ( 16, 19, 16.00000000000000000, #152 ) ;
#179 = CC_DESIGN_PERSON_AND_ORGANIZATION_ASSIGNMENT ( #177, #62, ( #182 ) ) ;
#180 = SHAPE_DEFINITION_REPRESENTATION ( #32, #15 ) ;
#181 = CARTESIAN_POINT ( 'NONE',  ( 0.000000000000000000, 0.000000000000000000, 5.000000000000000000 ) ) ;
#182 = PRODUCT_DEFINITION ( 'NEZNÁMÝ', '', #76, #143 ) ;
#183 = DIRECTION ( 'NONE',  ( 1.000000000000000000, 0.000000000000000000, 0.000000000000000000 ) ) ;
#184 = UNCERTAINTY_MEASURE_WITH_UNIT (LENGTH_MEASURE( 1.000000000000000082E-05 ), #36, 'distance_accuracy_value', 'NONE');
#185 = DIRECTION ( 'NONE',  ( 0.000000000000000000, 0.000000000000000000, 1.000000000000000000 ) ) ;
#186 = MECHANICAL_CONTEXT ( 'NONE', #142, 'mechanical' ) ;
#187 = CARTESIAN_POINT ( 'NONE',  ( 0.000000000000000000, 0.000000000000000000, 315.0000000000000000 ) ) ;
#188 = ADVANCED_FACE ( 'NONE', ( #162 ), #28, .T. ) ;
#189 = CC_DESIGN_APPROVAL ( #165, ( #182 ) ) ;
#190 = ORIENTED_EDGE ( 'NONE', *, *, #239, .F. ) ;
#191 = CARTESIAN_POINT ( 'NONE',  ( 0.000000000000000000, 0.000000000000000000, 5.000000000000000000 ) ) ;
#192 = ORIENTED_EDGE ( 'NONE', *, *, #50, .T. ) ;
#193 = ORIENTED_EDGE ( 'NONE', *, *, #153, .T. ) ;
#194 = VERTEX_POINT ( 'NONE', #5 ) ;
#195 = CIRCLE ( 'NONE', #113, 3.100000000000000089 ) ;
#196 = CARTESIAN_POINT ( 'NONE',  ( 0.000000000000000000, 0.000000000000000000, 5.000000000000000000 ) ) ;
#197 = DATE_AND_TIME ( #203, #101 ) ;
#198 = CIRCLE ( 'NONE', #74, 6.000000000000000888 ) ;
#199 = APPROVAL_DATE_TIME ( #117, #137 ) ;
#200 = FACE_BOUND ( 'NONE', #168, .T. ) ;
#201 = ADVANCED_FACE ( 'NONE', ( #6 ), #141, .T. ) ;
#202 = CARTESIAN_POINT ( 'NONE',  ( 0.000000000000000000, 0.000000000000000000, 315.0000000000000000 ) ) ;
#203 = CALENDAR_DATE ( 2023, 13, 2 ) ;
#204 = DIRECTION ( 'NONE',  ( 0.000000000000000000, 0.000000000000000000, 1.000000000000000000 ) ) ;
#205 = DIRECTION ( 'NONE',  ( 1.000000000000000000, 0.000000000000000000, 0.000000000000000000 ) ) ;
#206 = APPLICATION_CONTEXT ( 'configuration controlled 3d designs of mechanical parts and assemblies' ) ;
#207 = APPROVAL_PERSON_ORGANIZATION ( #98, #165, #17 ) ;
#208 = EDGE_LOOP ( 'NONE', ( #37, #145 ) ) ;
#209 = DIRECTION ( 'NONE',  ( -0.000000000000000000, -0.000000000000000000, -1.000000000000000000 ) ) ;
#210 = FACE_OUTER_BOUND ( 'NONE', #247, .T. ) ;
#211 = APPROVAL_PERSON_ORGANIZATION ( #214, #137, #80 ) ;
#212 = DIRECTION ( 'NONE',  ( -1.000000000000000000, 0.000000000000000000, 0.000000000000000000 ) ) ;
#213 = PERSON_AND_ORGANIZATION_ROLE ( 'design_owner' ) ;
#214 = PERSON_AND_ORGANIZATION ( #31, #216 ) ;
#215 = DIRECTION ( 'NONE',  ( 0.000000000000000000, 0.000000000000000000, 1.000000000000000000 ) ) ;
#216 = ORGANIZATION ( 'NEURÈENÝ', 'NEURÈENÝ', '' ) ;
#217 = PRODUCT ( '2473', '2473', '', ( #186 ) ) ;
#218 = EDGE_CURVE ( 'NONE', #55, #39, #64, .T. ) ;
#219 = MANIFOLD_SOLID_BREP ( 'Pøidat vysunutím3', #174 ) ;
#220 = PERSON_AND_ORGANIZATION ( #31, #216 ) ;
#221 = AXIS2_PLACEMENT_3D ( 'NONE', #130, #16, #212 ) ;
#222 = AXIS2_PLACEMENT_3D ( 'NONE', #191, #56, #91 ) ;
#223 = CALENDAR_DATE ( 2023, 13, 2 ) ;
#224 = CARTESIAN_POINT ( 'NONE',  ( 0.000000000000000000, 0.000000000000000000, 5.000000000000000000 ) ) ;
#225 = EDGE_CURVE ( 'NONE', #72, #55, #9, .T. ) ;
#226 = PERSON_AND_ORGANIZATION ( #31, #216 ) ;
#227 = DIRECTION ( 'NONE',  ( -0.000000000000000000, -0.000000000000000000, -1.000000000000000000 ) ) ;
#228 = ORIENTED_EDGE ( 'NONE', *, *, #218, .T. ) ;
#229 = ORIENTED_EDGE ( 'NONE', *, *, #65, .T. ) ;
#230 = EDGE_CURVE ( 'NONE', #233, #10, #244, .T. ) ;
#231 = LINE ( 'NONE', #147, #3 ) ;
#232 = EDGE_LOOP ( 'NONE', ( #190, #75, #92, #228 ) ) ;
#233 = VERTEX_POINT ( 'NONE', #110 ) ;
#234 = DIRECTION ( 'NONE',  ( 1.000000000000000000, 0.000000000000000000, -0.000000000000000000 ) ) ;
#235 = APPROVAL_DATE_TIME ( #252, #165 ) ;
#236 = DATE_TIME_ROLE ( 'creation_date' ) ;
#237 = CALENDAR_DATE ( 2023, 13, 2 ) ;
#238 = CIRCLE ( 'NONE', #54, 3.100000000000000089 ) ;
#239 = EDGE_CURVE ( 'NONE', #73, #39, #231, .T. ) ;
#240 = APPROVAL_STATUS ( 'not_yet_approved' ) ;
#241 = DIRECTION ( 'NONE',  ( 0.000000000000000000, 0.000000000000000000, 1.000000000000000000 ) ) ;
#242 = CC_DESIGN_APPROVAL ( #22, ( #109 ) ) ;
#243 = CARTESIAN_POINT ( 'NONE',  ( -3.100000000000000089, 0.000000000000000000, 315.0000000000000000 ) ) ;
#244 = LINE ( 'NONE', #11, #146 ) ;
#245 = ORIENTED_EDGE ( 'NONE', *, *, #239, .T. ) ;
#246 = APPROVAL_PERSON_ORGANIZATION ( #220, #22, #4 ) ;
#247 = EDGE_LOOP ( 'NONE', ( #57, #245, #192, #126 ) ) ;
#248 = ORIENTED_EDGE ( 'NONE', *, *, #218, .F. ) ;
#249 = CARTESIAN_POINT ( 'NONE',  ( 0.000000000000000000, 0.000000000000000000, 0.000000000000000000 ) ) ;
#250 = CC_DESIGN_SECURITY_CLASSIFICATION ( #109, ( #76 ) ) ;
#251 = CARTESIAN_POINT ( 'NONE',  ( -6.000000000000000888, 0.000000000000000000, 5.000000000000000000 ) ) ;
#252 = DATE_AND_TIME ( #96, #178 ) ;
#253 = EDGE_CURVE ( 'NONE', #194, #233, #29, .T. ) ;
#254 = AXIS2_PLACEMENT_3D ( 'NONE', #105, #164, #183 ) ;
#255 = CARTESIAN_POINT ( 'NONE',  ( -6.000000000000000888, 0.000000000000000000, 0.000000000000000000 ) ) ;
ENDSEC;
END-ISO-10303-21;
