ISO-10303-21;
HEADER;
FILE_DESCRIPTION (( 'STEP AP203' ),
    '1' );
FILE_NAME ('d4e9.STEP',
    '2023-02-13T14:49:19',
    ( '' ),
    ( '' ),
    'SwSTEP 2.0',
    'SolidWorks 2019',
    '' );
FILE_SCHEMA (( 'CONFIG_CONTROL_DESIGN' ));
ENDSEC;

DATA;
#1 = CC_DESIGN_PERSON_AND_ORGANIZATION_ASSIGNMENT ( #53, #68, ( #243 ) ) ;
#2 = DIRECTION ( 'NONE',  ( 1.000000000000000000, 0.000000000000000000, -0.000000000000000000 ) ) ;
#3 = EDGE_CURVE ( 'NONE', #86, #231, #63, .T. ) ;
#4 = DIRECTION ( 'NONE',  ( 0.000000000000000000, 0.000000000000000000, 1.000000000000000000 ) ) ;
#5 = DESIGN_CONTEXT ( 'detailed design', #162, 'design' ) ;
#6 = DIRECTION ( 'NONE',  ( 1.000000000000000000, 0.000000000000000000, 0.000000000000000000 ) ) ;
#7 = DIRECTION ( 'NONE',  ( -1.000000000000000000, 0.000000000000000000, 0.000000000000000000 ) ) ;
#8 = UNCERTAINTY_MEASURE_WITH_UNIT (LENGTH_MEASURE( 1.000000000000000082E-05 ), #168, 'distance_accuracy_value', 'NONE');
#9 = CARTESIAN_POINT ( 'NONE',  ( 0.000000000000000000, 0.000000000000000000, 200.0000000000000000 ) ) ;
#10 = ORIENTED_EDGE ( 'NONE', *, *, #187, .T. ) ;
#11 = DATE_AND_TIME ( #12, #193 ) ;
#12 = CALENDAR_DATE ( 2023, 13, 2 ) ;
#13 = ORIENTED_EDGE ( 'NONE', *, *, #241, .T. ) ;
#14 = AXIS2_PLACEMENT_3D ( 'NONE', #244, #25, #6 ) ;
#15 = COORDINATED_UNIVERSAL_TIME_OFFSET ( 1, 0, .AHEAD. ) ;
#16 = DIRECTION ( 'NONE',  ( 0.000000000000000000, 0.000000000000000000, 1.000000000000000000 ) ) ;
#17 = APPROVAL_STATUS ( 'not_yet_approved' ) ;
#18 = PERSON_AND_ORGANIZATION ( #20, #255 ) ;
#19 = EDGE_CURVE ( 'NONE', #23, #166, #99, .T. ) ;
#20 = PERSON ( 'NEURÈENÝ', 'NEURÈENÝ', 'NEURÈENÝ', ('NEURÈENÝ'), ('NEURÈENÝ'), ('NEURÈENÝ') ) ;
#21 = AXIS2_PLACEMENT_3D ( 'NONE', #9, #149, #7 ) ;
#22 = DIRECTION ( 'NONE',  ( -0.000000000000000000, -0.000000000000000000, -1.000000000000000000 ) ) ;
#23 = VERTEX_POINT ( 'NONE', #31 ) ;
#24 = CARTESIAN_POINT ( 'NONE',  ( 0.000000000000000000, 0.000000000000000000, 5.000000000000000000 ) ) ;
#25 = DIRECTION ( 'NONE',  ( 0.000000000000000000, 0.000000000000000000, 1.000000000000000000 ) ) ;
#26 = APPLICATION_CONTEXT ( 'configuration controlled 3d designs of mechanical parts and assemblies' ) ;
#27 = CARTESIAN_POINT ( 'NONE',  ( 0.000000000000000000, 0.000000000000000000, 5.000000000000000000 ) ) ;
#28 = ORIENTED_EDGE ( 'NONE', *, *, #209, .T. ) ;
#29 = EDGE_LOOP ( 'NONE', ( #10, #28 ) ) ;
#30 = DATE_TIME_ROLE ( 'classification_date' ) ;
#31 = CARTESIAN_POINT ( 'NONE',  ( 3.500000000000000000, 4.286263797015736595E-16, 5.000000000000000000 ) ) ;
#32 = MECHANICAL_CONTEXT ( 'NONE', #26, 'mechanical' ) ;
#33 = DIRECTION ( 'NONE',  ( 0.000000000000000000, 0.000000000000000000, 1.000000000000000000 ) ) ;
#34 = EDGE_CURVE ( 'NONE', #231, #86, #218, .T. ) ;
#35 = CALENDAR_DATE ( 2023, 13, 2 ) ;
#36 = COORDINATED_UNIVERSAL_TIME_OFFSET ( 1, 0, .AHEAD. ) ;
#37 = DIRECTION ( 'NONE',  ( 1.000000000000000000, 0.000000000000000000, 0.000000000000000000 ) ) ;
#38 = AXIS2_PLACEMENT_3D ( 'NONE', #27, #167, #206 ) ;
#39 = CARTESIAN_POINT ( 'NONE',  ( 0.000000000000000000, 0.000000000000000000, 5.000000000000000000 ) ) ;
#40 = CARTESIAN_POINT ( 'NONE',  ( 6.000000000000000888, 7.347880794884120722E-16, 5.000000000000000000 ) ) ;
#41 = CYLINDRICAL_SURFACE ( 'NONE', #174, 6.000000000000000888 ) ;
#42 = APPROVAL ( #89, 'NEURÈENÝ' ) ;
#43 = DIRECTION ( 'NONE',  ( 0.000000000000000000, 0.000000000000000000, 1.000000000000000000 ) ) ;
#44 = DIRECTION ( 'NONE',  ( 0.000000000000000000, 0.000000000000000000, 1.000000000000000000 ) ) ;
#45 = CARTESIAN_POINT ( 'NONE',  ( -3.500000000000000000, 0.000000000000000000, 200.0000000000000000 ) ) ;
#46 = DIRECTION ( 'NONE',  ( -0.000000000000000000, -0.000000000000000000, -1.000000000000000000 ) ) ;
#47 = AXIS2_PLACEMENT_3D ( 'NONE', #173, #189, #108 ) ;
#48 = EDGE_LOOP ( 'NONE', ( #97, #208 ) ) ;
#49 = ADVANCED_FACE ( 'NONE', ( #196, #94 ), #234, .T. ) ;
#50 = ORIENTED_EDGE ( 'NONE', *, *, #209, .F. ) ;
#51 = PERSON_AND_ORGANIZATION ( #20, #255 ) ;
#52 = ORIENTED_EDGE ( 'NONE', *, *, #67, .F. ) ;
#53 = PERSON_AND_ORGANIZATION ( #20, #255 ) ;
#54 = ORIENTED_EDGE ( 'NONE', *, *, #177, .T. ) ;
#55 = CIRCLE ( 'NONE', #75, 6.000000000000000888 ) ;
#56 = DIRECTION ( 'NONE',  ( 0.000000000000000000, 0.000000000000000000, 1.000000000000000000 ) ) ;
#57 = APPROVAL ( #17, 'NEURÈENÝ' ) ;
#58 = CARTESIAN_POINT ( 'NONE',  ( 0.000000000000000000, 0.000000000000000000, 5.000000000000000000 ) ) ;
#59 = PRODUCT_DEFINITION ( 'NEZNÁMÝ', '', #77, #5 ) ;
#60 = CARTESIAN_POINT ( 'NONE',  ( -6.000000000000000888, 0.000000000000000000, 5.000000000000000000 ) ) ;
#61 = CARTESIAN_POINT ( 'NONE',  ( 0.000000000000000000, 0.000000000000000000, 5.000000000000000000 ) ) ;
#62 = CARTESIAN_POINT ( 'NONE',  ( 0.000000000000000000, 0.000000000000000000, 0.000000000000000000 ) ) ;
#63 = CIRCLE ( 'NONE', #158, 3.500000000000000000 ) ;
#64 = DIRECTION ( 'NONE',  ( -1.000000000000000000, 0.000000000000000000, 0.000000000000000000 ) ) ;
#65 = AXIS2_PLACEMENT_3D ( 'NONE', #62, #198, #141 ) ;
#66 = ORIENTED_EDGE ( 'NONE', *, *, #152, .F. ) ;
#67 = EDGE_CURVE ( 'NONE', #130, #175, #213, .T. ) ;
#68 = PERSON_AND_ORGANIZATION_ROLE ( 'classification_officer' ) ;
#69 = CARTESIAN_POINT ( 'NONE',  ( 6.000000000000000888, 7.347880794884120722E-16, 5.000000000000000000 ) ) ;
#70 = DATE_AND_TIME ( #35, #139 ) ;
#71 = DIRECTION ( 'NONE',  ( 1.000000000000000000, 0.000000000000000000, 0.000000000000000000 ) ) ;
#72 = VECTOR ( 'NONE', #247, 1000.000000000000000 ) ;
#73 = APPROVAL_ROLE ( '' ) ;
#74 = ORIENTED_EDGE ( 'NONE', *, *, #228, .F. ) ;
#75 = AXIS2_PLACEMENT_3D ( 'NONE', #61, #4, #205 ) ;
#76 = ORIENTED_EDGE ( 'NONE', *, *, #177, .F. ) ;
#77 = PRODUCT_DEFINITION_FORMATION_WITH_SPECIFIED_SOURCE ( 'LIBOVOLNÝ', '', #157, .NOT_KNOWN. ) ;
#78 = CLOSED_SHELL ( 'NONE', ( #203, #98, #236, #49, #123, #197, #147 ) ) ;
#79 = CC_DESIGN_SECURITY_CLASSIFICATION ( #243, ( #77 ) ) ;
#80 = DIRECTION ( 'NONE',  ( -0.000000000000000000, -0.000000000000000000, -1.000000000000000000 ) ) ;
#81 = APPROVAL ( #251, 'NEURÈENÝ' ) ;
#82 = CYLINDRICAL_SURFACE ( 'NONE', #180, 6.000000000000000888 ) ;
#83 = VERTEX_POINT ( 'NONE', #69 ) ;
#84 = DIRECTION ( 'NONE',  ( -0.000000000000000000, -0.000000000000000000, -1.000000000000000000 ) ) ;
#85 = DIRECTION ( 'NONE',  ( 0.000000000000000000, 0.000000000000000000, 1.000000000000000000 ) ) ;
#86 = VERTEX_POINT ( 'NONE', #143 ) ;
#87 = CALENDAR_DATE ( 2023, 13, 2 ) ;
#88 = CARTESIAN_POINT ( 'NONE',  ( -6.000000000000000888, 0.000000000000000000, 5.000000000000000000 ) ) ;
#89 = APPROVAL_STATUS ( 'not_yet_approved' ) ;
#90 = LOCAL_TIME ( 15, 49, 19.00000000000000000, #153 ) ;
#91 = ORIENTED_EDGE ( 'NONE', *, *, #187, .F. ) ;
#92 = APPROVAL_ROLE ( '' ) ;
#93 = CIRCLE ( 'NONE', #38, 6.000000000000000888 ) ;
#94 = FACE_OUTER_BOUND ( 'NONE', #29, .T. ) ;
#95 = PERSON_AND_ORGANIZATION ( #20, #255 ) ;
#96 = AXIS2_PLACEMENT_3D ( 'NONE', #225, #184, #171 ) ;
#97 = ORIENTED_EDGE ( 'NONE', *, *, #3, .T. ) ;
#98 = ADVANCED_FACE ( 'NONE', ( #204 ), #41, .T. ) ;
#99 = CIRCLE ( 'NONE', #240, 3.500000000000000000 ) ;
#100 = CARTESIAN_POINT ( 'NONE',  ( 0.000000000000000000, 0.000000000000000000, 0.000000000000000000 ) ) ;
#101 = APPROVAL_PERSON_ORGANIZATION ( #95, #57, #92 ) ;
#102 = AXIS2_PLACEMENT_3D ( 'NONE', #183, #43, #2 ) ;
#103 = CARTESIAN_POINT ( 'NONE',  ( 3.500000000000000000, 4.286263797015736595E-16, 200.0000000000000000 ) ) ;
#104 = ORIENTED_EDGE ( 'NONE', *, *, #228, .T. ) ;
#105 = CYLINDRICAL_SURFACE ( 'NONE', #47, 3.500000000000000000 ) ;
#106 = CYLINDRICAL_SURFACE ( 'NONE', #21, 3.500000000000000000 ) ;
#107 = AXIS2_PLACEMENT_3D ( 'NONE', #24, #85, #110 ) ;
#108 = DIRECTION ( 'NONE',  ( -1.000000000000000000, 0.000000000000000000, 0.000000000000000000 ) ) ;
#109 = VERTEX_POINT ( 'NONE', #201 ) ;
#110 = DIRECTION ( 'NONE',  ( 1.000000000000000000, 0.000000000000000000, 0.000000000000000000 ) ) ;
#111 = APPROVAL_ROLE ( '' ) ;
#112 = DIRECTION ( 'NONE',  ( 0.000000000000000000, 0.000000000000000000, 1.000000000000000000 ) ) ;
#113 = PERSON_AND_ORGANIZATION_ROLE ( 'creator' ) ;
#114 = APPLICATION_PROTOCOL_DEFINITION ( 'international standard', 'config_control_design', 1994, #162 ) ;
#115 = CC_DESIGN_APPROVAL ( #57, ( #77 ) ) ;
#116 = ORIENTED_EDGE ( 'NONE', *, *, #152, .T. ) ;
#117 = PRODUCT_DEFINITION_SHAPE ( 'NONE', 'NONE',  #59 ) ;
#118 = SHAPE_DEFINITION_REPRESENTATION ( #117, #221 ) ;
#119 = ORIENTED_EDGE ( 'NONE', *, *, #181, .T. ) ;
#120 = CC_DESIGN_PERSON_AND_ORGANIZATION_ASSIGNMENT ( #132, #192, ( #77 ) ) ;
#121 = PLANE ( 'NONE',  #227 ) ;
#122 = CARTESIAN_POINT ( 'NONE',  ( 0.000000000000000000, 0.000000000000000000, 5.000000000000000000 ) ) ;
#123 = ADVANCED_FACE ( 'NONE', ( #163 ), #121, .F. ) ;
#124 = DIRECTION ( 'NONE',  ( -0.000000000000000000, -0.000000000000000000, -1.000000000000000000 ) ) ;
#125 = LINE ( 'NONE', #45, #210 ) ;
#126 = CIRCLE ( 'NONE', #14, 6.000000000000000888 ) ;
#127 = CARTESIAN_POINT ( 'NONE',  ( -3.500000000000000000, 0.000000000000000000, 5.000000000000000000 ) ) ;
#128 = ORIENTED_EDGE ( 'NONE', *, *, #250, .T. ) ;
#129 = CARTESIAN_POINT ( 'NONE',  ( -6.000000000000000888, 0.000000000000000000, 0.000000000000000000 ) ) ;
#130 = VERTEX_POINT ( 'NONE', #60 ) ;
#131 = CC_DESIGN_DATE_AND_TIME_ASSIGNMENT ( #176, #217, ( #59 ) ) ;
#132 = PERSON_AND_ORGANIZATION ( #20, #255 ) ;
#133 = ORIENTED_EDGE ( 'NONE', *, *, #67, .T. ) ;
#134 = APPROVAL_DATE_TIME ( #155, #81 ) ;
#135 = AXIS2_PLACEMENT_3D ( 'NONE', #156, #112, #37 ) ;
#136 = PERSON_AND_ORGANIZATION ( #20, #255 ) ;
#137 = CC_DESIGN_PERSON_AND_ORGANIZATION_ASSIGNMENT ( #51, #229, ( #59 ) ) ;
#138 = PERSON_AND_ORGANIZATION_ROLE ( 'design_owner' ) ;
#139 = LOCAL_TIME ( 15, 49, 19.00000000000000000, #214 ) ;
#140 = EDGE_LOOP ( 'NONE', ( #219, #150 ) ) ;
#141 = DIRECTION ( 'NONE',  ( 1.000000000000000000, 0.000000000000000000, 0.000000000000000000 ) ) ;
#142 = DIRECTION ( 'NONE',  ( 1.000000000000000000, 0.000000000000000000, -0.000000000000000000 ) ) ;
#143 = CARTESIAN_POINT ( 'NONE',  ( -3.500000000000000000, 0.000000000000000000, 200.0000000000000000 ) ) ;
#144 = PLANE ( 'NONE',  #102 ) ;
#145 = LOCAL_TIME ( 15, 49, 19.00000000000000000, #179 ) ;
#146 = APPROVAL_PERSON_ORGANIZATION ( #18, #81, #73 ) ;
#147 = ADVANCED_FACE ( 'NONE', ( #220 ), #144, .T. ) ;
#148 =( NAMED_UNIT ( * ) PLANE_ANGLE_UNIT ( ) SI_UNIT ( $, .RADIAN. ) );
#149 = DIRECTION ( 'NONE',  ( -0.000000000000000000, -0.000000000000000000, -1.000000000000000000 ) ) ;
#150 = ORIENTED_EDGE ( 'NONE', *, *, #250, .F. ) ;
#151 = VECTOR ( 'NONE', #46, 1000.000000000000000 ) ;
#152 = EDGE_CURVE ( 'NONE', #83, #109, #237, .T. ) ;
#153 = COORDINATED_UNIVERSAL_TIME_OFFSET ( 1, 0, .AHEAD. ) ;
#154 = CC_DESIGN_PERSON_AND_ORGANIZATION_ASSIGNMENT ( #233, #113, ( #77 ) ) ;
#155 = DATE_AND_TIME ( #190, #90 ) ;
#156 = CARTESIAN_POINT ( 'NONE',  ( 0.000000000000000000, 0.000000000000000000, 200.0000000000000000 ) ) ;
#157 = PRODUCT ( 'd4e9', 'd4e9', '', ( #32 ) ) ;
#158 = AXIS2_PLACEMENT_3D ( 'NONE', #215, #33, #195 ) ;
#159 = DIRECTION ( 'NONE',  ( 1.000000000000000000, 0.000000000000000000, -0.000000000000000000 ) ) ;
#160 = PRODUCT_RELATED_PRODUCT_CATEGORY ( 'detail', '', ( #157 ) ) ;
#161 = DIRECTION ( 'NONE',  ( -1.000000000000000000, 0.000000000000000000, 0.000000000000000000 ) ) ;
#162 = APPLICATION_CONTEXT ( 'configuration controlled 3d designs of mechanical parts and assemblies' ) ;
#163 = FACE_OUTER_BOUND ( 'NONE', #140, .T. ) ;
#164 =( GEOMETRIC_REPRESENTATION_CONTEXT ( 3 ) GLOBAL_UNCERTAINTY_ASSIGNED_CONTEXT ( ( #8 ) ) GLOBAL_UNIT_ASSIGNED_CONTEXT ( ( #168, #148, #226 ) ) REPRESENTATION_CONTEXT ( 'NONE', 'WORKASPACE' ) );
#165 = APPLICATION_PROTOCOL_DEFINITION ( 'international standard', 'config_control_design', 1994, #26 ) ;
#166 = VERTEX_POINT ( 'NONE', #127 ) ;
#167 = DIRECTION ( 'NONE',  ( 0.000000000000000000, 0.000000000000000000, 1.000000000000000000 ) ) ;
#168 =( LENGTH_UNIT ( ) NAMED_UNIT ( * ) SI_UNIT ( .MILLI., .METRE. ) );
#169 = ORIENTED_EDGE ( 'NONE', *, *, #3, .F. ) ;
#170 = CC_DESIGN_APPROVAL ( #81, ( #59 ) ) ;
#171 = DIRECTION ( 'NONE',  ( 1.000000000000000000, 0.000000000000000000, 0.000000000000000000 ) ) ;
#172 = EDGE_LOOP ( 'NONE', ( #50, #116, #128, #52 ) ) ;
#173 = CARTESIAN_POINT ( 'NONE',  ( 0.000000000000000000, 0.000000000000000000, 200.0000000000000000 ) ) ;
#174 = AXIS2_PLACEMENT_3D ( 'NONE', #122, #22, #161 ) ;
#175 = VERTEX_POINT ( 'NONE', #129 ) ;
#176 = DATE_AND_TIME ( #248, #216 ) ;
#177 = EDGE_CURVE ( 'NONE', #166, #23, #222, .T. ) ;
#178 = EDGE_LOOP ( 'NONE', ( #211, #104, #249, #235 ) ) ;
#179 = COORDINATED_UNIVERSAL_TIME_OFFSET ( 1, 0, .AHEAD. ) ;
#180 = AXIS2_PLACEMENT_3D ( 'NONE', #186, #124, #64 ) ;
#181 = EDGE_CURVE ( 'NONE', #86, #166, #125, .T. ) ;
#182 = CC_DESIGN_DATE_AND_TIME_ASSIGNMENT ( #11, #30, ( #243 ) ) ;
#183 = CARTESIAN_POINT ( 'NONE',  ( 0.000000000000000000, 0.000000000000000000, 200.0000000000000000 ) ) ;
#184 = DIRECTION ( 'NONE',  ( 0.000000000000000000, 0.000000000000000000, 1.000000000000000000 ) ) ;
#185 = LINE ( 'NONE', #188, #223 ) ;
#186 = CARTESIAN_POINT ( 'NONE',  ( 0.000000000000000000, 0.000000000000000000, 5.000000000000000000 ) ) ;
#187 = EDGE_CURVE ( 'NONE', #130, #83, #93, .T. ) ;
#188 = CARTESIAN_POINT ( 'NONE',  ( 3.500000000000000000, 4.286263797015736595E-16, 200.0000000000000000 ) ) ;
#189 = DIRECTION ( 'NONE',  ( -0.000000000000000000, -0.000000000000000000, -1.000000000000000000 ) ) ;
#190 = CALENDAR_DATE ( 2023, 13, 2 ) ;
#191 = CC_DESIGN_PERSON_AND_ORGANIZATION_ASSIGNMENT ( #230, #138, ( #157 ) ) ;
#192 = PERSON_AND_ORGANIZATION_ROLE ( 'design_supplier' ) ;
#193 = LOCAL_TIME ( 15, 49, 19.00000000000000000, #36 ) ;
#194 = APPROVAL_DATE_TIME ( #246, #42 ) ;
#195 = DIRECTION ( 'NONE',  ( 1.000000000000000000, 0.000000000000000000, 0.000000000000000000 ) ) ;
#196 = FACE_BOUND ( 'NONE', #252, .T. ) ;
#197 = ADVANCED_FACE ( 'NONE', ( #242 ), #106, .T. ) ;
#198 = DIRECTION ( 'NONE',  ( 0.000000000000000000, 0.000000000000000000, 1.000000000000000000 ) ) ;
#199 = EDGE_LOOP ( 'NONE', ( #66, #91, #133, #13 ) ) ;
#200 = CC_DESIGN_APPROVAL ( #42, ( #243 ) ) ;
#201 = CARTESIAN_POINT ( 'NONE',  ( 6.000000000000000888, 7.347880794884120722E-16, 0.000000000000000000 ) ) ;
#202 = AXIS2_PLACEMENT_3D ( 'NONE', #39, #56, #142 ) ;
#203 = ADVANCED_FACE ( 'NONE', ( #207 ), #105, .T. ) ;
#204 = FACE_OUTER_BOUND ( 'NONE', #172, .T. ) ;
#205 = DIRECTION ( 'NONE',  ( 1.000000000000000000, 0.000000000000000000, 0.000000000000000000 ) ) ;
#206 = DIRECTION ( 'NONE',  ( 1.000000000000000000, 0.000000000000000000, 0.000000000000000000 ) ) ;
#207 = FACE_OUTER_BOUND ( 'NONE', #178, .T. ) ;
#208 = ORIENTED_EDGE ( 'NONE', *, *, #34, .T. ) ;
#209 = EDGE_CURVE ( 'NONE', #83, #130, #55, .T. ) ;
#210 = VECTOR ( 'NONE', #80, 1000.000000000000000 ) ;
#211 = ORIENTED_EDGE ( 'NONE', *, *, #34, .F. ) ;
#212 = SECURITY_CLASSIFICATION_LEVEL ( 'unclassified' ) ;
#213 = LINE ( 'NONE', #88, #72 ) ;
#214 = COORDINATED_UNIVERSAL_TIME_OFFSET ( 1, 0, .AHEAD. ) ;
#215 = CARTESIAN_POINT ( 'NONE',  ( 0.000000000000000000, 0.000000000000000000, 200.0000000000000000 ) ) ;
#216 = LOCAL_TIME ( 15, 49, 19.00000000000000000, #15 ) ;
#217 = DATE_TIME_ROLE ( 'creation_date' ) ;
#218 = CIRCLE ( 'NONE', #135, 3.500000000000000000 ) ;
#219 = ORIENTED_EDGE ( 'NONE', *, *, #241, .F. ) ;
#220 = FACE_OUTER_BOUND ( 'NONE', #48, .T. ) ;
#221 = ADVANCED_BREP_SHAPE_REPRESENTATION ( 'd4e9', ( #238, #65 ), #164 ) ;
#222 = CIRCLE ( 'NONE', #107, 3.500000000000000000 ) ;
#223 = VECTOR ( 'NONE', #84, 1000.000000000000000 ) ;
#224 = FACE_OUTER_BOUND ( 'NONE', #199, .T. ) ;
#225 = CARTESIAN_POINT ( 'NONE',  ( 0.000000000000000000, 0.000000000000000000, 0.000000000000000000 ) ) ;
#226 =( NAMED_UNIT ( * ) SI_UNIT ( $, .STERADIAN. ) SOLID_ANGLE_UNIT ( ) );
#227 = AXIS2_PLACEMENT_3D ( 'NONE', #100, #44, #159 ) ;
#228 = EDGE_CURVE ( 'NONE', #231, #23, #185, .T. ) ;
#229 = PERSON_AND_ORGANIZATION_ROLE ( 'creator' ) ;
#230 = PERSON_AND_ORGANIZATION ( #20, #255 ) ;
#231 = VERTEX_POINT ( 'NONE', #103 ) ;
#232 = APPROVAL_DATE_TIME ( #70, #57 ) ;
#233 = PERSON_AND_ORGANIZATION ( #20, #255 ) ;
#234 = PLANE ( 'NONE',  #202 ) ;
#235 = ORIENTED_EDGE ( 'NONE', *, *, #181, .F. ) ;
#236 = ADVANCED_FACE ( 'NONE', ( #224 ), #82, .T. ) ;
#237 = LINE ( 'NONE', #40, #151 ) ;
#238 = MANIFOLD_SOLID_BREP ( 'Pøidat vysunutím3', #78 ) ;
#239 = EDGE_LOOP ( 'NONE', ( #74, #169, #119, #54 ) ) ;
#240 = AXIS2_PLACEMENT_3D ( 'NONE', #58, #16, #71 ) ;
#241 = EDGE_CURVE ( 'NONE', #175, #109, #253, .T. ) ;
#242 = FACE_OUTER_BOUND ( 'NONE', #239, .T. ) ;
#243 = SECURITY_CLASSIFICATION ( '', '', #212 ) ;
#244 = CARTESIAN_POINT ( 'NONE',  ( 0.000000000000000000, 0.000000000000000000, 0.000000000000000000 ) ) ;
#245 = ORIENTED_EDGE ( 'NONE', *, *, #19, .F. ) ;
#246 = DATE_AND_TIME ( #87, #145 ) ;
#247 = DIRECTION ( 'NONE',  ( -0.000000000000000000, -0.000000000000000000, -1.000000000000000000 ) ) ;
#248 = CALENDAR_DATE ( 2023, 13, 2 ) ;
#249 = ORIENTED_EDGE ( 'NONE', *, *, #19, .T. ) ;
#250 = EDGE_CURVE ( 'NONE', #109, #175, #126, .T. ) ;
#251 = APPROVAL_STATUS ( 'not_yet_approved' ) ;
#252 = EDGE_LOOP ( 'NONE', ( #76, #245 ) ) ;
#253 = CIRCLE ( 'NONE', #96, 6.000000000000000888 ) ;
#254 = APPROVAL_PERSON_ORGANIZATION ( #136, #42, #111 ) ;
#255 = ORGANIZATION ( 'NEURÈENÝ', 'NEURÈENÝ', '' ) ;
ENDSEC;
END-ISO-10303-21;
