ISO-10303-21;
HEADER;
FILE_DESCRIPTION (( 'STEP AP203' ),
    '1' );
FILE_NAME ('1867.STEP',
    '2023-02-13T17:17:56',
    ( '' ),
    ( '' ),
    'SwSTEP 2.0',
    'SolidWorks 2019',
    '' );
FILE_SCHEMA (( 'CONFIG_CONTROL_DESIGN' ));
ENDSEC;

DATA;
#1 = COORDINATED_UNIVERSAL_TIME_OFFSET ( 1, 0, .AHEAD. ) ;
#2 = VECTOR ( 'NONE', #70, 1000.000000000000000 ) ;
#3 = PERSON_AND_ORGANIZATION ( #197, #14 ) ;
#4 = CALENDAR_DATE ( 2023, 13, 2 ) ;
#5 = ADVANCED_FACE ( 'NONE', ( #112 ), #209, .T. ) ;
#6 = COORDINATED_UNIVERSAL_TIME_OFFSET ( 1, 0, .AHEAD. ) ;
#7 = PERSON_AND_ORGANIZATION ( #197, #14 ) ;
#8 = CARTESIAN_POINT ( 'NONE',  ( 0.000000000000000000, 0.000000000000000000, 1.500000000000000000 ) ) ;
#9 = DIRECTION ( 'NONE',  ( 1.000000000000000000, 0.000000000000000000, 0.000000000000000000 ) ) ;
#10 = DATE_AND_TIME ( #149, #217 ) ;
#11 = DIRECTION ( 'NONE',  ( -1.000000000000000000, 0.000000000000000000, 0.000000000000000000 ) ) ;
#12 = ADVANCED_FACE ( 'NONE', ( #192, #120 ), #145, .T. ) ;
#13 = DIRECTION ( 'NONE',  ( 1.000000000000000000, 0.000000000000000000, 0.000000000000000000 ) ) ;
#14 = ORGANIZATION ( 'NEURÈENÝ', 'NEURÈENÝ', '' ) ;
#15 = AXIS2_PLACEMENT_3D ( 'NONE', #8, #124, #13 ) ;
#16 = CARTESIAN_POINT ( 'NONE',  ( 0.000000000000000000, 0.000000000000000000, 1.500000000000000000 ) ) ;
#17 = DIRECTION ( 'NONE',  ( 0.000000000000000000, 0.000000000000000000, 1.000000000000000000 ) ) ;
#18 =( NAMED_UNIT ( * ) SI_UNIT ( $, .STERADIAN. ) SOLID_ANGLE_UNIT ( ) );
#19 = APPLICATION_CONTEXT ( 'configuration controlled 3d designs of mechanical parts and assemblies' ) ;
#20 = CARTESIAN_POINT ( 'NONE',  ( 0.000000000000000000, 0.000000000000000000, 100.0000000000000000 ) ) ;
#21 = ORIENTED_EDGE ( 'NONE', *, *, #131, .F. ) ;
#22 = AXIS2_PLACEMENT_3D ( 'NONE', #16, #202, #183 ) ;
#23 = APPROVAL_ROLE ( '' ) ;
#24 = CLOSED_SHELL ( 'NONE', ( #171, #193, #125, #12, #223, #5, #25 ) ) ;
#25 = ADVANCED_FACE ( 'NONE', ( #203 ), #169, .T. ) ;
#26 = CALENDAR_DATE ( 2023, 13, 2 ) ;
#27 = PERSON_AND_ORGANIZATION_ROLE ( 'design_supplier' ) ;
#28 = CIRCLE ( 'NONE', #186, 0.8000000000000000444 ) ;
#29 = DIRECTION ( 'NONE',  ( 0.000000000000000000, 0.000000000000000000, 1.000000000000000000 ) ) ;
#30 = EDGE_LOOP ( 'NONE', ( #69, #189 ) ) ;
#31 = DIRECTION ( 'NONE',  ( 0.000000000000000000, 0.000000000000000000, 1.000000000000000000 ) ) ;
#32 = CIRCLE ( 'NONE', #102, 0.8000000000000000444 ) ;
#33 = DIRECTION ( 'NONE',  ( 1.000000000000000000, 0.000000000000000000, 0.000000000000000000 ) ) ;
#34 = SECURITY_CLASSIFICATION ( '', '', #43 ) ;
#35 = APPROVAL ( #195, 'NEURÈENÝ' ) ;
#36 = EDGE_LOOP ( 'NONE', ( #37, #54 ) ) ;
#37 = ORIENTED_EDGE ( 'NONE', *, *, #110, .F. ) ;
#38 = ORIENTED_EDGE ( 'NONE', *, *, #140, .F. ) ;
#39 = VERTEX_POINT ( 'NONE', #179 ) ;
#40 =( GEOMETRIC_REPRESENTATION_CONTEXT ( 3 ) GLOBAL_UNCERTAINTY_ASSIGNED_CONTEXT ( ( #210 ) ) GLOBAL_UNIT_ASSIGNED_CONTEXT ( ( #207, #58, #18 ) ) REPRESENTATION_CONTEXT ( 'NONE', 'WORKASPACE' ) );
#41 = CARTESIAN_POINT ( 'NONE',  ( 0.000000000000000000, 0.000000000000000000, 0.000000000000000000 ) ) ;
#42 = CARTESIAN_POINT ( 'NONE',  ( 0.000000000000000000, 0.000000000000000000, 1.500000000000000000 ) ) ;
#43 = SECURITY_CLASSIFICATION_LEVEL ( 'unclassified' ) ;
#44 = APPROVAL_PERSON_ORGANIZATION ( #76, #162, #62 ) ;
#45 = DATE_AND_TIME ( #213, #160 ) ;
#46 = CARTESIAN_POINT ( 'NONE',  ( 0.000000000000000000, 0.000000000000000000, 0.000000000000000000 ) ) ;
#47 = LOCAL_TIME ( 18, 17, 56.00000000000000000, #218 ) ;
#48 = DIRECTION ( 'NONE',  ( 0.000000000000000000, 0.000000000000000000, 1.000000000000000000 ) ) ;
#49 = ORIENTED_EDGE ( 'NONE', *, *, #108, .T. ) ;
#50 = SHAPE_DEFINITION_REPRESENTATION ( #95, #177 ) ;
#51 = EDGE_CURVE ( 'NONE', #205, #59, #32, .T. ) ;
#52 = CARTESIAN_POINT ( 'NONE',  ( -0.8000000000000000444, 0.000000000000000000, 100.0000000000000000 ) ) ;
#53 = CIRCLE ( 'NONE', #109, 0.8000000000000000444 ) ;
#54 = ORIENTED_EDGE ( 'NONE', *, *, #185, .F. ) ;
#55 = COORDINATED_UNIVERSAL_TIME_OFFSET ( 1, 0, .AHEAD. ) ;
#56 = ORIENTED_EDGE ( 'NONE', *, *, #140, .T. ) ;
#57 = VERTEX_POINT ( 'NONE', #126 ) ;
#58 =( NAMED_UNIT ( * ) PLANE_ANGLE_UNIT ( ) SI_UNIT ( $, .RADIAN. ) );
#59 = VERTEX_POINT ( 'NONE', #128 ) ;
#60 = ORIENTED_EDGE ( 'NONE', *, *, #214, .T. ) ;
#61 = AXIS2_PLACEMENT_3D ( 'NONE', #122, #31, #84 ) ;
#62 = APPROVAL_ROLE ( '' ) ;
#63 = DIRECTION ( 'NONE',  ( 0.000000000000000000, 0.000000000000000000, 1.000000000000000000 ) ) ;
#64 = CARTESIAN_POINT ( 'NONE',  ( 0.000000000000000000, 0.000000000000000000, 100.0000000000000000 ) ) ;
#65 = APPROVAL_DATE_TIME ( #173, #154 ) ;
#66 = DIRECTION ( 'NONE',  ( -1.000000000000000000, 0.000000000000000000, 0.000000000000000000 ) ) ;
#67 = CARTESIAN_POINT ( 'NONE',  ( 0.000000000000000000, 0.000000000000000000, 1.500000000000000000 ) ) ;
#68 = DIRECTION ( 'NONE',  ( 1.000000000000000000, 0.000000000000000000, 0.000000000000000000 ) ) ;
#69 = ORIENTED_EDGE ( 'NONE', *, *, #176, .T. ) ;
#70 = DIRECTION ( 'NONE',  ( -0.000000000000000000, -0.000000000000000000, -1.000000000000000000 ) ) ;
#71 = CIRCLE ( 'NONE', #238, 0.8000000000000000444 ) ;
#72 = PRODUCT_DEFINITION ( 'NEZNÁMÝ', '', #251, #153 ) ;
#73 = CIRCLE ( 'NONE', #15, 1.500000000000000222 ) ;
#74 = MANIFOLD_SOLID_BREP ( 'Pøidat vysunutím3', #24 ) ;
#75 = CC_DESIGN_PERSON_AND_ORGANIZATION_ASSIGNMENT ( #3, #78, ( #34 ) ) ;
#76 = PERSON_AND_ORGANIZATION ( #197, #14 ) ;
#77 = AXIS2_PLACEMENT_3D ( 'NONE', #234, #63, #161 ) ;
#78 = PERSON_AND_ORGANIZATION_ROLE ( 'classification_officer' ) ;
#79 = APPLICATION_PROTOCOL_DEFINITION ( 'international standard', 'config_control_design', 1994, #191 ) ;
#80 = PERSON_AND_ORGANIZATION ( #197, #14 ) ;
#81 = VECTOR ( 'NONE', #201, 1000.000000000000000 ) ;
#82 = DIRECTION ( 'NONE',  ( -0.000000000000000000, -0.000000000000000000, -1.000000000000000000 ) ) ;
#83 = LINE ( 'NONE', #52, #93 ) ;
#84 = DIRECTION ( 'NONE',  ( 1.000000000000000000, 0.000000000000000000, 0.000000000000000000 ) ) ;
#85 = CC_DESIGN_PERSON_AND_ORGANIZATION_ASSIGNMENT ( #119, #175, ( #251 ) ) ;
#86 = CARTESIAN_POINT ( 'NONE',  ( 0.000000000000000000, 0.000000000000000000, 1.500000000000000000 ) ) ;
#87 = AXIS2_PLACEMENT_3D ( 'NONE', #46, #121, #68 ) ;
#88 = CARTESIAN_POINT ( 'NONE',  ( 0.8000000000000000444, 9.797174393178826150E-17, 1.500000000000000000 ) ) ;
#89 = CARTESIAN_POINT ( 'NONE',  ( 0.000000000000000000, 0.000000000000000000, 0.000000000000000000 ) ) ;
#90 = EDGE_LOOP ( 'NONE', ( #190, #60, #107, #136 ) ) ;
#91 = VERTEX_POINT ( 'NONE', #88 ) ;
#92 = DIRECTION ( 'NONE',  ( -0.000000000000000000, -0.000000000000000000, -1.000000000000000000 ) ) ;
#93 = VECTOR ( 'NONE', #244, 1000.000000000000000 ) ;
#94 = APPROVAL_ROLE ( '' ) ;
#95 = PRODUCT_DEFINITION_SHAPE ( 'NONE', 'NONE',  #72 ) ;
#96 = PERSON_AND_ORGANIZATION_ROLE ( 'creator' ) ;
#97 = EDGE_CURVE ( 'NONE', #205, #91, #219, .T. ) ;
#98 = AXIS2_PLACEMENT_3D ( 'NONE', #127, #246, #11 ) ;
#99 = APPROVAL_STATUS ( 'not_yet_approved' ) ;
#100 = CALENDAR_DATE ( 2023, 13, 2 ) ;
#101 = DIRECTION ( 'NONE',  ( 0.000000000000000000, 0.000000000000000000, 1.000000000000000000 ) ) ;
#102 = AXIS2_PLACEMENT_3D ( 'NONE', #64, #101, #181 ) ;
#103 = DIRECTION ( 'NONE',  ( 1.000000000000000000, 0.000000000000000000, -0.000000000000000000 ) ) ;
#104 = LINE ( 'NONE', #168, #2 ) ;
#105 = DIRECTION ( 'NONE',  ( 0.000000000000000000, 0.000000000000000000, 1.000000000000000000 ) ) ;
#106 = PLANE ( 'NONE',  #204 ) ;
#107 = ORIENTED_EDGE ( 'NONE', *, *, #249, .T. ) ;
#108 = EDGE_CURVE ( 'NONE', #39, #253, #73, .T. ) ;
#109 = AXIS2_PLACEMENT_3D ( 'NONE', #86, #48, #196 ) ;
#110 = EDGE_CURVE ( 'NONE', #57, #91, #53, .T. ) ;
#111 = AXIS2_PLACEMENT_3D ( 'NONE', #141, #199, #130 ) ;
#112 = FACE_OUTER_BOUND ( 'NONE', #157, .T. ) ;
#113 = FACE_OUTER_BOUND ( 'NONE', #138, .T. ) ;
#114 = EDGE_LOOP ( 'NONE', ( #230, #174, #231, #38 ) ) ;
#115 = PERSON_AND_ORGANIZATION ( #197, #14 ) ;
#116 = DIRECTION ( 'NONE',  ( -1.000000000000000000, 0.000000000000000000, 0.000000000000000000 ) ) ;
#117 = CC_DESIGN_APPROVAL ( #35, ( #72 ) ) ;
#118 = MECHANICAL_CONTEXT ( 'NONE', #191, 'mechanical' ) ;
#119 = PERSON_AND_ORGANIZATION ( #197, #14 ) ;
#120 = FACE_OUTER_BOUND ( 'NONE', #227, .T. ) ;
#121 = DIRECTION ( 'NONE',  ( 0.000000000000000000, 0.000000000000000000, 1.000000000000000000 ) ) ;
#122 = CARTESIAN_POINT ( 'NONE',  ( 0.000000000000000000, 0.000000000000000000, 1.500000000000000000 ) ) ;
#123 = CARTESIAN_POINT ( 'NONE',  ( 0.000000000000000000, 0.000000000000000000, 100.0000000000000000 ) ) ;
#124 = DIRECTION ( 'NONE',  ( 0.000000000000000000, 0.000000000000000000, 1.000000000000000000 ) ) ;
#125 = ADVANCED_FACE ( 'NONE', ( #113 ), #159, .T. ) ;
#126 = CARTESIAN_POINT ( 'NONE',  ( -0.8000000000000000444, 0.000000000000000000, 1.500000000000000000 ) ) ;
#127 = CARTESIAN_POINT ( 'NONE',  ( 0.000000000000000000, 0.000000000000000000, 100.0000000000000000 ) ) ;
#128 = CARTESIAN_POINT ( 'NONE',  ( -0.8000000000000000444, 0.000000000000000000, 100.0000000000000000 ) ) ;
#129 = FACE_OUTER_BOUND ( 'NONE', #114, .T. ) ;
#130 = DIRECTION ( 'NONE',  ( 1.000000000000000000, 0.000000000000000000, -0.000000000000000000 ) ) ;
#131 = EDGE_CURVE ( 'NONE', #151, #255, #248, .T. ) ;
#132 = ORIENTED_EDGE ( 'NONE', *, *, #229, .T. ) ;
#133 = ORIENTED_EDGE ( 'NONE', *, *, #200, .T. ) ;
#134 = VECTOR ( 'NONE', #144, 1000.000000000000000 ) ;
#135 = ORIENTED_EDGE ( 'NONE', *, *, #200, .F. ) ;
#136 = ORIENTED_EDGE ( 'NONE', *, *, #229, .F. ) ;
#137 = AXIS2_PLACEMENT_3D ( 'NONE', #41, #216, #9 ) ;
#138 = EDGE_LOOP ( 'NONE', ( #245, #135, #132, #228 ) ) ;
#139 = PERSON_AND_ORGANIZATION ( #197, #14 ) ;
#140 = EDGE_CURVE ( 'NONE', #59, #57, #83, .T. ) ;
#141 = CARTESIAN_POINT ( 'NONE',  ( 0.000000000000000000, 0.000000000000000000, 1.500000000000000000 ) ) ;
#142 = APPROVAL_DATE_TIME ( #45, #35 ) ;
#143 = DATE_TIME_ROLE ( 'classification_date' ) ;
#144 = DIRECTION ( 'NONE',  ( -0.000000000000000000, -0.000000000000000000, -1.000000000000000000 ) ) ;
#145 = PLANE ( 'NONE',  #111 ) ;
#146 = FACE_OUTER_BOUND ( 'NONE', #90, .T. ) ;
#147 = LOCAL_TIME ( 18, 17, 56.00000000000000000, #6 ) ;
#148 = CARTESIAN_POINT ( 'NONE',  ( -1.500000000000000222, 0.000000000000000000, 1.500000000000000000 ) ) ;
#149 = CALENDAR_DATE ( 2023, 13, 2 ) ;
#150 = CIRCLE ( 'NONE', #87, 1.500000000000000222 ) ;
#151 = VERTEX_POINT ( 'NONE', #164 ) ;
#152 = ORIENTED_EDGE ( 'NONE', *, *, #97, .F. ) ;
#153 = DESIGN_CONTEXT ( 'detailed design', #19, 'design' ) ;
#154 = APPROVAL ( #99, 'NEURÈENÝ' ) ;
#155 = LOCAL_TIME ( 18, 17, 56.00000000000000000, #1 ) ;
#156 = CC_DESIGN_APPROVAL ( #154, ( #251 ) ) ;
#157 = EDGE_LOOP ( 'NONE', ( #152, #172, #56, #212 ) ) ;
#158 = APPROVAL_STATUS ( 'not_yet_approved' ) ;
#159 = CYLINDRICAL_SURFACE ( 'NONE', #242, 1.500000000000000222 ) ;
#160 = LOCAL_TIME ( 18, 17, 56.00000000000000000, #178 ) ;
#161 = DIRECTION ( 'NONE',  ( 1.000000000000000000, 0.000000000000000000, 0.000000000000000000 ) ) ;
#162 = APPROVAL ( #158, 'NEURÈENÝ' ) ;
#163 = PERSON_AND_ORGANIZATION_ROLE ( 'design_owner' ) ;
#164 = CARTESIAN_POINT ( 'NONE',  ( -1.500000000000000222, 0.000000000000000000, 0.000000000000000000 ) ) ;
#165 = CC_DESIGN_PERSON_AND_ORGANIZATION_ASSIGNMENT ( #139, #163, ( #236 ) ) ;
#166 = CARTESIAN_POINT ( 'NONE',  ( 0.8000000000000000444, 9.797174393178826150E-17, 100.0000000000000000 ) ) ;
#167 = CC_DESIGN_DATE_AND_TIME_ASSIGNMENT ( #233, #143, ( #34 ) ) ;
#168 = CARTESIAN_POINT ( 'NONE',  ( 1.500000000000000222, 1.836970198721030181E-16, 1.500000000000000000 ) ) ;
#169 = PLANE ( 'NONE',  #208 ) ;
#170 = CIRCLE ( 'NONE', #61, 1.500000000000000222 ) ;
#171 = ADVANCED_FACE ( 'NONE', ( #129 ), #220, .T. ) ;
#172 = ORIENTED_EDGE ( 'NONE', *, *, #176, .F. ) ;
#173 = DATE_AND_TIME ( #4, #147 ) ;
#174 = ORIENTED_EDGE ( 'NONE', *, *, #97, .T. ) ;
#175 = PERSON_AND_ORGANIZATION_ROLE ( 'creator' ) ;
#176 = EDGE_CURVE ( 'NONE', #59, #205, #28, .T. ) ;
#177 = ADVANCED_BREP_SHAPE_REPRESENTATION ( '1867', ( #74, #77 ), #40 ) ;
#178 = COORDINATED_UNIVERSAL_TIME_OFFSET ( 1, 0, .AHEAD. ) ;
#179 = CARTESIAN_POINT ( 'NONE',  ( 1.500000000000000222, 1.836970198721030181E-16, 1.500000000000000000 ) ) ;
#180 = PERSON_AND_ORGANIZATION ( #197, #14 ) ;
#181 = DIRECTION ( 'NONE',  ( 1.000000000000000000, 0.000000000000000000, 0.000000000000000000 ) ) ;
#182 = APPROVAL_PERSON_ORGANIZATION ( #115, #35, #23 ) ;
#183 = DIRECTION ( 'NONE',  ( -1.000000000000000000, 0.000000000000000000, 0.000000000000000000 ) ) ;
#184 = CARTESIAN_POINT ( 'NONE',  ( 0.000000000000000000, 0.000000000000000000, 100.0000000000000000 ) ) ;
#185 = EDGE_CURVE ( 'NONE', #91, #57, #71, .T. ) ;
#186 = AXIS2_PLACEMENT_3D ( 'NONE', #184, #226, #33 ) ;
#187 = CYLINDRICAL_SURFACE ( 'NONE', #22, 1.500000000000000222 ) ;
#188 = FACE_OUTER_BOUND ( 'NONE', #250, .T. ) ;
#189 = ORIENTED_EDGE ( 'NONE', *, *, #51, .T. ) ;
#190 = ORIENTED_EDGE ( 'NONE', *, *, #108, .F. ) ;
#191 = APPLICATION_CONTEXT ( 'configuration controlled 3d designs of mechanical parts and assemblies' ) ;
#192 = FACE_BOUND ( 'NONE', #36, .T. ) ;
#193 = ADVANCED_FACE ( 'NONE', ( #146 ), #187, .T. ) ;
#194 = AXIS2_PLACEMENT_3D ( 'NONE', #20, #92, #116 ) ;
#195 = APPROVAL_STATUS ( 'not_yet_approved' ) ;
#196 = DIRECTION ( 'NONE',  ( 1.000000000000000000, 0.000000000000000000, 0.000000000000000000 ) ) ;
#197 = PERSON ( 'NEURÈENÝ', 'NEURÈENÝ', 'NEURÈENÝ', ('NEURÈENÝ'), ('NEURÈENÝ'), ('NEURÈENÝ') ) ;
#198 = DATE_TIME_ROLE ( 'creation_date' ) ;
#199 = DIRECTION ( 'NONE',  ( 0.000000000000000000, 0.000000000000000000, 1.000000000000000000 ) ) ;
#200 = EDGE_CURVE ( 'NONE', #253, #39, #170, .T. ) ;
#201 = DIRECTION ( 'NONE',  ( -0.000000000000000000, -0.000000000000000000, -1.000000000000000000 ) ) ;
#202 = DIRECTION ( 'NONE',  ( -0.000000000000000000, -0.000000000000000000, -1.000000000000000000 ) ) ;
#203 = FACE_OUTER_BOUND ( 'NONE', #30, .T. ) ;
#204 = AXIS2_PLACEMENT_3D ( 'NONE', #89, #17, #103 ) ;
#205 = VERTEX_POINT ( 'NONE', #166 ) ;
#206 = CC_DESIGN_PERSON_AND_ORGANIZATION_ASSIGNMENT ( #80, #27, ( #251 ) ) ;
#207 =( LENGTH_UNIT ( ) NAMED_UNIT ( * ) SI_UNIT ( .MILLI., .METRE. ) );
#208 = AXIS2_PLACEMENT_3D ( 'NONE', #123, #29, #235 ) ;
#209 = CYLINDRICAL_SURFACE ( 'NONE', #194, 0.8000000000000000444 ) ;
#210 = UNCERTAINTY_MEASURE_WITH_UNIT (LENGTH_MEASURE( 1.000000000000000082E-05 ), #207, 'distance_accuracy_value', 'NONE');
#211 = CC_DESIGN_PERSON_AND_ORGANIZATION_ASSIGNMENT ( #180, #96, ( #72 ) ) ;
#212 = ORIENTED_EDGE ( 'NONE', *, *, #110, .T. ) ;
#213 = CALENDAR_DATE ( 2023, 13, 2 ) ;
#214 = EDGE_CURVE ( 'NONE', #39, #255, #104, .T. ) ;
#215 = DATE_AND_TIME ( #26, #47 ) ;
#216 = DIRECTION ( 'NONE',  ( 0.000000000000000000, 0.000000000000000000, 1.000000000000000000 ) ) ;
#217 = LOCAL_TIME ( 18, 17, 56.00000000000000000, #55 ) ;
#218 = COORDINATED_UNIVERSAL_TIME_OFFSET ( 1, 0, .AHEAD. ) ;
#219 = LINE ( 'NONE', #240, #81 ) ;
#220 = CYLINDRICAL_SURFACE ( 'NONE', #98, 0.8000000000000000444 ) ;
#221 = DIRECTION ( 'NONE',  ( 1.000000000000000000, 0.000000000000000000, 0.000000000000000000 ) ) ;
#222 = APPROVAL_PERSON_ORGANIZATION ( #7, #154, #94 ) ;
#223 = ADVANCED_FACE ( 'NONE', ( #188 ), #106, .F. ) ;
#224 = CARTESIAN_POINT ( 'NONE',  ( 1.500000000000000222, 1.836970198721030181E-16, 0.000000000000000000 ) ) ;
#225 = APPROVAL_DATE_TIME ( #10, #162 ) ;
#226 = DIRECTION ( 'NONE',  ( 0.000000000000000000, 0.000000000000000000, 1.000000000000000000 ) ) ;
#227 = EDGE_LOOP ( 'NONE', ( #133, #49 ) ) ;
#228 = ORIENTED_EDGE ( 'NONE', *, *, #131, .T. ) ;
#229 = EDGE_CURVE ( 'NONE', #253, #151, #241, .T. ) ;
#230 = ORIENTED_EDGE ( 'NONE', *, *, #51, .F. ) ;
#231 = ORIENTED_EDGE ( 'NONE', *, *, #185, .T. ) ;
#232 = APPLICATION_PROTOCOL_DEFINITION ( 'international standard', 'config_control_design', 1994, #19 ) ;
#233 = DATE_AND_TIME ( #100, #155 ) ;
#234 = CARTESIAN_POINT ( 'NONE',  ( 0.000000000000000000, 0.000000000000000000, 0.000000000000000000 ) ) ;
#235 = DIRECTION ( 'NONE',  ( 1.000000000000000000, 0.000000000000000000, -0.000000000000000000 ) ) ;
#236 = PRODUCT ( '1867', '1867', '', ( #118 ) ) ;
#237 = PRODUCT_RELATED_PRODUCT_CATEGORY ( 'detail', '', ( #236 ) ) ;
#238 = AXIS2_PLACEMENT_3D ( 'NONE', #67, #105, #221 ) ;
#239 = CC_DESIGN_SECURITY_CLASSIFICATION ( #34, ( #251 ) ) ;
#240 = CARTESIAN_POINT ( 'NONE',  ( 0.8000000000000000444, 9.797174393178826150E-17, 100.0000000000000000 ) ) ;
#241 = LINE ( 'NONE', #247, #134 ) ;
#242 = AXIS2_PLACEMENT_3D ( 'NONE', #42, #82, #66 ) ;
#243 = CC_DESIGN_DATE_AND_TIME_ASSIGNMENT ( #215, #198, ( #72 ) ) ;
#244 = DIRECTION ( 'NONE',  ( -0.000000000000000000, -0.000000000000000000, -1.000000000000000000 ) ) ;
#245 = ORIENTED_EDGE ( 'NONE', *, *, #214, .F. ) ;
#246 = DIRECTION ( 'NONE',  ( -0.000000000000000000, -0.000000000000000000, -1.000000000000000000 ) ) ;
#247 = CARTESIAN_POINT ( 'NONE',  ( -1.500000000000000222, 0.000000000000000000, 1.500000000000000000 ) ) ;
#248 = CIRCLE ( 'NONE', #137, 1.500000000000000222 ) ;
#249 = EDGE_CURVE ( 'NONE', #255, #151, #150, .T. ) ;
#250 = EDGE_LOOP ( 'NONE', ( #21, #254 ) ) ;
#251 = PRODUCT_DEFINITION_FORMATION_WITH_SPECIFIED_SOURCE ( 'LIBOVOLNÝ', '', #236, .NOT_KNOWN. ) ;
#252 = CC_DESIGN_APPROVAL ( #162, ( #34 ) ) ;
#253 = VERTEX_POINT ( 'NONE', #148 ) ;
#254 = ORIENTED_EDGE ( 'NONE', *, *, #249, .F. ) ;
#255 = VERTEX_POINT ( 'NONE', #224 ) ;
ENDSEC;
END-ISO-10303-21;
