ISO-10303-21;
HEADER;
FILE_DESCRIPTION (( 'STEP AP203' ),
    '1' );
FILE_NAME ('0301.STEP',
    '2023-02-13T15:19:03',
    ( '' ),
    ( '' ),
    'SwSTEP 2.0',
    'SolidWorks 2019',
    '' );
FILE_SCHEMA (( 'CONFIG_CONTROL_DESIGN' ));
ENDSEC;

DATA;
#1 = CIRCLE ( 'NONE', #142, 3.100000000000000089 ) ;
#2 = FACE_OUTER_BOUND ( 'NONE', #172, .T. ) ;
#3 = CIRCLE ( 'NONE', #162, 3.100000000000000089 ) ;
#4 = DIRECTION ( 'NONE',  ( -0.000000000000000000, -0.000000000000000000, -1.000000000000000000 ) ) ;
#5 = EDGE_CURVE ( 'NONE', #108, #231, #32, .T. ) ;
#6 = LINE ( 'NONE', #199, #143 ) ;
#7 = APPROVAL_STATUS ( 'not_yet_approved' ) ;
#8 = AXIS2_PLACEMENT_3D ( 'NONE', #132, #220, #198 ) ;
#9 = APPLICATION_PROTOCOL_DEFINITION ( 'international standard', 'config_control_design', 1994, #174 ) ;
#10 = DIRECTION ( 'NONE',  ( 1.000000000000000000, 0.000000000000000000, 0.000000000000000000 ) ) ;
#11 = PERSON_AND_ORGANIZATION ( #102, #117 ) ;
#12 = APPROVAL_PERSON_ORGANIZATION ( #27, #70, #87 ) ;
#13 = COORDINATED_UNIVERSAL_TIME_OFFSET ( 1, 0, .AHEAD. ) ;
#14 = PRODUCT_DEFINITION ( 'NEZNÁMÝ', '', #75, #243 ) ;
#15 = ORIENTED_EDGE ( 'NONE', *, *, #73, .F. ) ;
#16 = CARTESIAN_POINT ( 'NONE',  ( 0.000000000000000000, 0.000000000000000000, 5.000000000000000000 ) ) ;
#17 = PRODUCT_DEFINITION_SHAPE ( 'NONE', 'NONE',  #14 ) ;
#18 = VERTEX_POINT ( 'NONE', #152 ) ;
#19 = ORIENTED_EDGE ( 'NONE', *, *, #91, .F. ) ;
#20 = CARTESIAN_POINT ( 'NONE',  ( -3.100000000000000089, 0.000000000000000000, 400.0000000000000000 ) ) ;
#21 = DIRECTION ( 'NONE',  ( 1.000000000000000000, 0.000000000000000000, 0.000000000000000000 ) ) ;
#22 = CC_DESIGN_DATE_AND_TIME_ASSIGNMENT ( #207, #182, ( #14 ) ) ;
#23 = CARTESIAN_POINT ( 'NONE',  ( 0.000000000000000000, 0.000000000000000000, 400.0000000000000000 ) ) ;
#24 = SECURITY_CLASSIFICATION ( '', '', #184 ) ;
#25 = CARTESIAN_POINT ( 'NONE',  ( 3.100000000000000089, 3.796405077356793932E-16, 400.0000000000000000 ) ) ;
#26 = CARTESIAN_POINT ( 'NONE',  ( 0.000000000000000000, 0.000000000000000000, 5.000000000000000000 ) ) ;
#27 = PERSON_AND_ORGANIZATION ( #102, #117 ) ;
#28 = AXIS2_PLACEMENT_3D ( 'NONE', #61, #42, #112 ) ;
#29 = CC_DESIGN_APPROVAL ( #70, ( #14 ) ) ;
#30 = APPLICATION_PROTOCOL_DEFINITION ( 'international standard', 'config_control_design', 1994, #168 ) ;
#31 = DATE_AND_TIME ( #124, #218 ) ;
#32 = CIRCLE ( 'NONE', #206, 3.100000000000000089 ) ;
#33 = MANIFOLD_SOLID_BREP ( 'Pøidat vysunutím3', #138 ) ;
#34 = ADVANCED_FACE ( 'NONE', ( #37, #110 ), #214, .T. ) ;
#35 = ORIENTED_EDGE ( 'NONE', *, *, #59, .F. ) ;
#36 = ORIENTED_EDGE ( 'NONE', *, *, #91, .T. ) ;
#37 = FACE_BOUND ( 'NONE', #58, .T. ) ;
#38 = CC_DESIGN_PERSON_AND_ORGANIZATION_ASSIGNMENT ( #68, #201, ( #75 ) ) ;
#39 = ORIENTED_EDGE ( 'NONE', *, *, #86, .F. ) ;
#40 = FACE_OUTER_BOUND ( 'NONE', #251, .T. ) ;
#41 = AXIS2_PLACEMENT_3D ( 'NONE', #157, #66, #101 ) ;
#42 = DIRECTION ( 'NONE',  ( 0.000000000000000000, 0.000000000000000000, 1.000000000000000000 ) ) ;
#43 = APPROVAL ( #7, 'NEURÈENÝ' ) ;
#44 = DIRECTION ( 'NONE',  ( 1.000000000000000000, 0.000000000000000000, 0.000000000000000000 ) ) ;
#45 = VECTOR ( 'NONE', #215, 1000.000000000000000 ) ;
#46 = DIRECTION ( 'NONE',  ( -0.000000000000000000, -0.000000000000000000, -1.000000000000000000 ) ) ;
#47 = AXIS2_PLACEMENT_3D ( 'NONE', #85, #136, #84 ) ;
#48 = DIRECTION ( 'NONE',  ( -0.000000000000000000, -0.000000000000000000, -1.000000000000000000 ) ) ;
#49 = EDGE_CURVE ( 'NONE', #18, #93, #131, .T. ) ;
#50 = CALENDAR_DATE ( 2023, 13, 2 ) ;
#51 = CARTESIAN_POINT ( 'NONE',  ( 0.000000000000000000, 0.000000000000000000, 0.000000000000000000 ) ) ;
#52 = AXIS2_PLACEMENT_3D ( 'NONE', #139, #80, #175 ) ;
#53 = DIRECTION ( 'NONE',  ( 0.000000000000000000, 0.000000000000000000, 1.000000000000000000 ) ) ;
#54 = MECHANICAL_CONTEXT ( 'NONE', #174, 'mechanical' ) ;
#55 = VECTOR ( 'NONE', #98, 1000.000000000000000 ) ;
#56 = ORIENTED_EDGE ( 'NONE', *, *, #158, .T. ) ;
#57 = EDGE_LOOP ( 'NONE', ( #169, #211, #60, #228 ) ) ;
#58 = EDGE_LOOP ( 'NONE', ( #232, #128 ) ) ;
#59 = EDGE_CURVE ( 'NONE', #194, #193, #186, .T. ) ;
#60 = ORIENTED_EDGE ( 'NONE', *, *, #5, .T. ) ;
#61 = CARTESIAN_POINT ( 'NONE',  ( 0.000000000000000000, 0.000000000000000000, 0.000000000000000000 ) ) ;
#62 = DIRECTION ( 'NONE',  ( -0.000000000000000000, -0.000000000000000000, -1.000000000000000000 ) ) ;
#63 = ADVANCED_FACE ( 'NONE', ( #40 ), #67, .T. ) ;
#64 = LOCAL_TIME ( 16, 19, 3.000000000000000000, #13 ) ;
#65 = FACE_OUTER_BOUND ( 'NONE', #74, .T. ) ;
#66 = DIRECTION ( 'NONE',  ( 0.000000000000000000, 0.000000000000000000, 1.000000000000000000 ) ) ;
#67 = CYLINDRICAL_SURFACE ( 'NONE', #151, 6.000000000000000888 ) ;
#68 = PERSON_AND_ORGANIZATION ( #102, #117 ) ;
#69 = CALENDAR_DATE ( 2023, 13, 2 ) ;
#70 = APPROVAL ( #121, 'NEURÈENÝ' ) ;
#71 = PERSON_AND_ORGANIZATION ( #102, #117 ) ;
#72 = CALENDAR_DATE ( 2023, 13, 2 ) ;
#73 = EDGE_CURVE ( 'NONE', #234, #93, #161, .T. ) ;
#74 = EDGE_LOOP ( 'NONE', ( #210, #35, #209, #96 ) ) ;
#75 = PRODUCT_DEFINITION_FORMATION_WITH_SPECIFIED_SOURCE ( 'LIBOVOLNÝ', '', #130, .NOT_KNOWN. ) ;
#76 = ORIENTED_EDGE ( 'NONE', *, *, #49, .T. ) ;
#77 = DIRECTION ( 'NONE',  ( 0.000000000000000000, 0.000000000000000000, 1.000000000000000000 ) ) ;
#78 = CC_DESIGN_APPROVAL ( #177, ( #24 ) ) ;
#79 = ORIENTED_EDGE ( 'NONE', *, *, #185, .F. ) ;
#80 = DIRECTION ( 'NONE',  ( 0.000000000000000000, 0.000000000000000000, 1.000000000000000000 ) ) ;
#81 = CARTESIAN_POINT ( 'NONE',  ( 0.000000000000000000, 0.000000000000000000, 5.000000000000000000 ) ) ;
#82 = PLANE ( 'NONE',  #147 ) ;
#83 = LOCAL_TIME ( 16, 19, 3.000000000000000000, #242 ) ;
#84 = DIRECTION ( 'NONE',  ( -1.000000000000000000, 0.000000000000000000, 0.000000000000000000 ) ) ;
#85 = CARTESIAN_POINT ( 'NONE',  ( 0.000000000000000000, 0.000000000000000000, 400.0000000000000000 ) ) ;
#86 = EDGE_CURVE ( 'NONE', #93, #234, #216, .T. ) ;
#87 = APPROVAL_ROLE ( '' ) ;
#88 = ADVANCED_FACE ( 'NONE', ( #113 ), #82, .T. ) ;
#89 = COORDINATED_UNIVERSAL_TIME_OFFSET ( 1, 0, .AHEAD. ) ;
#90 = CALENDAR_DATE ( 2023, 13, 2 ) ;
#91 = EDGE_CURVE ( 'NONE', #18, #191, #236, .T. ) ;
#92 = UNCERTAINTY_MEASURE_WITH_UNIT (LENGTH_MEASURE( 1.000000000000000082E-05 ), #244, 'distance_accuracy_value', 'NONE');
#93 = VERTEX_POINT ( 'NONE', #156 ) ;
#94 = ORIENTED_EDGE ( 'NONE', *, *, #49, .F. ) ;
#95 = ORIENTED_EDGE ( 'NONE', *, *, #59, .T. ) ;
#96 = ORIENTED_EDGE ( 'NONE', *, *, #106, .T. ) ;
#97 = CARTESIAN_POINT ( 'NONE',  ( 0.000000000000000000, 0.000000000000000000, 400.0000000000000000 ) ) ;
#98 = DIRECTION ( 'NONE',  ( -0.000000000000000000, -0.000000000000000000, -1.000000000000000000 ) ) ;
#99 = CARTESIAN_POINT ( 'NONE',  ( 6.000000000000000888, 7.347880794884120722E-16, 5.000000000000000000 ) ) ;
#100 = CARTESIAN_POINT ( 'NONE',  ( 0.000000000000000000, 0.000000000000000000, 400.0000000000000000 ) ) ;
#101 = DIRECTION ( 'NONE',  ( 1.000000000000000000, 0.000000000000000000, -0.000000000000000000 ) ) ;
#102 = PERSON ( 'NEURÈENÝ', 'NEURÈENÝ', 'NEURÈENÝ', ('NEURÈENÝ'), ('NEURÈENÝ'), ('NEURÈENÝ') ) ;
#103 = PERSON_AND_ORGANIZATION_ROLE ( 'design_supplier' ) ;
#104 = DATE_AND_TIME ( #72, #125 ) ;
#105 = ORIENTED_EDGE ( 'NONE', *, *, #73, .T. ) ;
#106 = EDGE_CURVE ( 'NONE', #231, #108, #1, .T. ) ;
#107 = AXIS2_PLACEMENT_3D ( 'NONE', #23, #46, #239 ) ;
#108 = VERTEX_POINT ( 'NONE', #135 ) ;
#109 = DIRECTION ( 'NONE',  ( 0.000000000000000000, 0.000000000000000000, 1.000000000000000000 ) ) ;
#110 = FACE_OUTER_BOUND ( 'NONE', #129, .T. ) ;
#111 = ADVANCED_FACE ( 'NONE', ( #222 ), #180, .T. ) ;
#112 = DIRECTION ( 'NONE',  ( 1.000000000000000000, 0.000000000000000000, 0.000000000000000000 ) ) ;
#113 = FACE_OUTER_BOUND ( 'NONE', #248, .T. ) ;
#114 = DIRECTION ( 'NONE',  ( -0.000000000000000000, -0.000000000000000000, -1.000000000000000000 ) ) ;
#115 = CC_DESIGN_PERSON_AND_ORGANIZATION_ASSIGNMENT ( #11, #187, ( #24 ) ) ;
#116 = DIRECTION ( 'NONE',  ( 1.000000000000000000, 0.000000000000000000, 0.000000000000000000 ) ) ;
#117 = ORGANIZATION ( 'NEURÈENÝ', 'NEURÈENÝ', '' ) ;
#118 = DIRECTION ( 'NONE',  ( 0.000000000000000000, 0.000000000000000000, 1.000000000000000000 ) ) ;
#119 = PERSON_AND_ORGANIZATION_ROLE ( 'creator' ) ;
#120 = PRODUCT_RELATED_PRODUCT_CATEGORY ( 'detail', '', ( #130 ) ) ;
#121 = APPROVAL_STATUS ( 'not_yet_approved' ) ;
#122 = PERSON_AND_ORGANIZATION ( #102, #117 ) ;
#123 = PERSON_AND_ORGANIZATION ( #102, #117 ) ;
#124 = CALENDAR_DATE ( 2023, 13, 2 ) ;
#125 = LOCAL_TIME ( 16, 19, 3.000000000000000000, #89 ) ;
#126 = ORIENTED_EDGE ( 'NONE', *, *, #185, .T. ) ;
#127 = AXIS2_PLACEMENT_3D ( 'NONE', #233, #109, #154 ) ;
#128 = ORIENTED_EDGE ( 'NONE', *, *, #5, .F. ) ;
#129 = EDGE_LOOP ( 'NONE', ( #36, #126 ) ) ;
#130 = PRODUCT ( '0301', '0301', '', ( #54 ) ) ;
#131 = LINE ( 'NONE', #148, #45 ) ;
#132 = CARTESIAN_POINT ( 'NONE',  ( 0.000000000000000000, 0.000000000000000000, 0.000000000000000000 ) ) ;
#133 = AXIS2_PLACEMENT_3D ( 'NONE', #97, #246, #116 ) ;
#134 = AXIS2_PLACEMENT_3D ( 'NONE', #254, #176, #21 ) ;
#135 = CARTESIAN_POINT ( 'NONE',  ( 3.100000000000000089, 3.796405077356793932E-16, 5.000000000000000000 ) ) ;
#136 = DIRECTION ( 'NONE',  ( -0.000000000000000000, -0.000000000000000000, -1.000000000000000000 ) ) ;
#137 = PLANE ( 'NONE',  #41 ) ;
#138 = CLOSED_SHELL ( 'NONE', ( #111, #213, #63, #34, #196, #226, #88 ) ) ;
#139 = CARTESIAN_POINT ( 'NONE',  ( 0.000000000000000000, 0.000000000000000000, 5.000000000000000000 ) ) ;
#140 = COORDINATED_UNIVERSAL_TIME_OFFSET ( 1, 0, .AHEAD. ) ;
#141 = CARTESIAN_POINT ( 'NONE',  ( 6.000000000000000888, 7.347880794884120722E-16, 0.000000000000000000 ) ) ;
#142 = AXIS2_PLACEMENT_3D ( 'NONE', #200, #221, #238 ) ;
#143 = VECTOR ( 'NONE', #4, 1000.000000000000000 ) ;
#144 = APPROVAL_STATUS ( 'not_yet_approved' ) ;
#145 = COORDINATED_UNIVERSAL_TIME_OFFSET ( 1, 0, .AHEAD. ) ;
#146 = APPROVAL_DATE_TIME ( #247, #177 ) ;
#147 = AXIS2_PLACEMENT_3D ( 'NONE', #217, #160, #195 ) ;
#148 = CARTESIAN_POINT ( 'NONE',  ( -6.000000000000000888, 0.000000000000000000, 5.000000000000000000 ) ) ;
#149 = EDGE_CURVE ( 'NONE', #193, #108, #197, .T. ) ;
#150 = ORIENTED_EDGE ( 'NONE', *, *, #189, .T. ) ;
#151 = AXIS2_PLACEMENT_3D ( 'NONE', #26, #62, #178 ) ;
#152 = CARTESIAN_POINT ( 'NONE',  ( -6.000000000000000888, 0.000000000000000000, 5.000000000000000000 ) ) ;
#153 = CC_DESIGN_APPROVAL ( #43, ( #75 ) ) ;
#154 = DIRECTION ( 'NONE',  ( 1.000000000000000000, 0.000000000000000000, -0.000000000000000000 ) ) ;
#155 = CARTESIAN_POINT ( 'NONE',  ( 3.100000000000000089, 3.796405077356793932E-16, 400.0000000000000000 ) ) ;
#156 = CARTESIAN_POINT ( 'NONE',  ( -6.000000000000000888, 0.000000000000000000, 0.000000000000000000 ) ) ;
#157 = CARTESIAN_POINT ( 'NONE',  ( 0.000000000000000000, 0.000000000000000000, 0.000000000000000000 ) ) ;
#158 = EDGE_CURVE ( 'NONE', #193, #194, #3, .T. ) ;
#159 = CYLINDRICAL_SURFACE ( 'NONE', #229, 6.000000000000000888 ) ;
#160 = DIRECTION ( 'NONE',  ( 0.000000000000000000, 0.000000000000000000, 1.000000000000000000 ) ) ;
#161 = CIRCLE ( 'NONE', #28, 6.000000000000000888 ) ;
#162 = AXIS2_PLACEMENT_3D ( 'NONE', #100, #118, #44 ) ;
#163 = APPROVAL_ROLE ( '' ) ;
#164 = DATE_TIME_ROLE ( 'classification_date' ) ;
#165 = CC_DESIGN_PERSON_AND_ORGANIZATION_ASSIGNMENT ( #123, #223, ( #130 ) ) ;
#166 = CIRCLE ( 'NONE', #134, 6.000000000000000888 ) ;
#167 =( NAMED_UNIT ( * ) PLANE_ANGLE_UNIT ( ) SI_UNIT ( $, .RADIAN. ) );
#168 = APPLICATION_CONTEXT ( 'configuration controlled 3d designs of mechanical parts and assemblies' ) ;
#169 = ORIENTED_EDGE ( 'NONE', *, *, #158, .F. ) ;
#170 = LOCAL_TIME ( 16, 19, 3.000000000000000000, #140 ) ;
#171 = ORIENTED_EDGE ( 'NONE', *, *, #86, .T. ) ;
#172 = EDGE_LOOP ( 'NONE', ( #39, #15 ) ) ;
#173 =( GEOMETRIC_REPRESENTATION_CONTEXT ( 3 ) GLOBAL_UNCERTAINTY_ASSIGNED_CONTEXT ( ( #92 ) ) GLOBAL_UNIT_ASSIGNED_CONTEXT ( ( #244, #167, #183 ) ) REPRESENTATION_CONTEXT ( 'NONE', 'WORKASPACE' ) );
#174 = APPLICATION_CONTEXT ( 'configuration controlled 3d designs of mechanical parts and assemblies' ) ;
#175 = DIRECTION ( 'NONE',  ( 1.000000000000000000, 0.000000000000000000, 0.000000000000000000 ) ) ;
#176 = DIRECTION ( 'NONE',  ( 0.000000000000000000, 0.000000000000000000, 1.000000000000000000 ) ) ;
#177 = APPROVAL ( #144, 'NEURÈENÝ' ) ;
#178 = DIRECTION ( 'NONE',  ( -1.000000000000000000, 0.000000000000000000, 0.000000000000000000 ) ) ;
#179 = VECTOR ( 'NONE', #48, 1000.000000000000000 ) ;
#180 = CYLINDRICAL_SURFACE ( 'NONE', #107, 3.100000000000000089 ) ;
#181 = CYLINDRICAL_SURFACE ( 'NONE', #47, 3.100000000000000089 ) ;
#182 = DATE_TIME_ROLE ( 'creation_date' ) ;
#183 =( NAMED_UNIT ( * ) SI_UNIT ( $, .STERADIAN. ) SOLID_ANGLE_UNIT ( ) );
#184 = SECURITY_CLASSIFICATION_LEVEL ( 'unclassified' ) ;
#185 = EDGE_CURVE ( 'NONE', #191, #18, #166, .T. ) ;
#186 = CIRCLE ( 'NONE', #133, 3.100000000000000089 ) ;
#187 = PERSON_AND_ORGANIZATION_ROLE ( 'classification_officer' ) ;
#188 = APPROVAL_PERSON_ORGANIZATION ( #71, #177, #227 ) ;
#189 = EDGE_CURVE ( 'NONE', #191, #234, #6, .T. ) ;
#190 = EDGE_LOOP ( 'NONE', ( #79, #150, #105, #94 ) ) ;
#191 = VERTEX_POINT ( 'NONE', #99 ) ;
#192 = AXIS2_PLACEMENT_3D ( 'NONE', #51, #53, #10 ) ;
#193 = VERTEX_POINT ( 'NONE', #25 ) ;
#194 = VERTEX_POINT ( 'NONE', #20 ) ;
#195 = DIRECTION ( 'NONE',  ( 1.000000000000000000, 0.000000000000000000, -0.000000000000000000 ) ) ;
#196 = ADVANCED_FACE ( 'NONE', ( #2 ), #137, .F. ) ;
#197 = LINE ( 'NONE', #155, #179 ) ;
#198 = DIRECTION ( 'NONE',  ( 1.000000000000000000, 0.000000000000000000, 0.000000000000000000 ) ) ;
#199 = CARTESIAN_POINT ( 'NONE',  ( 6.000000000000000888, 7.347880794884120722E-16, 5.000000000000000000 ) ) ;
#200 = CARTESIAN_POINT ( 'NONE',  ( 0.000000000000000000, 0.000000000000000000, 5.000000000000000000 ) ) ;
#201 = PERSON_AND_ORGANIZATION_ROLE ( 'creator' ) ;
#202 = APPROVAL_DATE_TIME ( #31, #70 ) ;
#203 = EDGE_CURVE ( 'NONE', #194, #231, #235, .T. ) ;
#204 = APPROVAL_DATE_TIME ( #205, #43 ) ;
#205 = DATE_AND_TIME ( #50, #170 ) ;
#206 = AXIS2_PLACEMENT_3D ( 'NONE', #16, #77, #252 ) ;
#207 = DATE_AND_TIME ( #69, #83 ) ;
#208 = CC_DESIGN_PERSON_AND_ORGANIZATION_ASSIGNMENT ( #224, #103, ( #75 ) ) ;
#209 = ORIENTED_EDGE ( 'NONE', *, *, #203, .T. ) ;
#210 = ORIENTED_EDGE ( 'NONE', *, *, #149, .F. ) ;
#211 = ORIENTED_EDGE ( 'NONE', *, *, #149, .T. ) ;
#212 = CC_DESIGN_SECURITY_CLASSIFICATION ( #24, ( #75 ) ) ;
#213 = ADVANCED_FACE ( 'NONE', ( #255 ), #159, .T. ) ;
#214 = PLANE ( 'NONE',  #127 ) ;
#215 = DIRECTION ( 'NONE',  ( -0.000000000000000000, -0.000000000000000000, -1.000000000000000000 ) ) ;
#216 = CIRCLE ( 'NONE', #8, 6.000000000000000888 ) ;
#217 = CARTESIAN_POINT ( 'NONE',  ( 0.000000000000000000, 0.000000000000000000, 400.0000000000000000 ) ) ;
#218 = LOCAL_TIME ( 16, 19, 3.000000000000000000, #145 ) ;
#219 = DIRECTION ( 'NONE',  ( -1.000000000000000000, 0.000000000000000000, 0.000000000000000000 ) ) ;
#220 = DIRECTION ( 'NONE',  ( 0.000000000000000000, 0.000000000000000000, 1.000000000000000000 ) ) ;
#221 = DIRECTION ( 'NONE',  ( 0.000000000000000000, 0.000000000000000000, 1.000000000000000000 ) ) ;
#222 = FACE_OUTER_BOUND ( 'NONE', #57, .T. ) ;
#223 = PERSON_AND_ORGANIZATION_ROLE ( 'design_owner' ) ;
#224 = PERSON_AND_ORGANIZATION ( #102, #117 ) ;
#225 = ADVANCED_BREP_SHAPE_REPRESENTATION ( '0301', ( #33, #192 ), #173 ) ;
#226 = ADVANCED_FACE ( 'NONE', ( #65 ), #181, .T. ) ;
#227 = APPROVAL_ROLE ( '' ) ;
#228 = ORIENTED_EDGE ( 'NONE', *, *, #203, .F. ) ;
#229 = AXIS2_PLACEMENT_3D ( 'NONE', #81, #114, #219 ) ;
#230 = SHAPE_DEFINITION_REPRESENTATION ( #17, #225 ) ;
#231 = VERTEX_POINT ( 'NONE', #240 ) ;
#232 = ORIENTED_EDGE ( 'NONE', *, *, #106, .F. ) ;
#233 = CARTESIAN_POINT ( 'NONE',  ( 0.000000000000000000, 0.000000000000000000, 5.000000000000000000 ) ) ;
#234 = VERTEX_POINT ( 'NONE', #141 ) ;
#235 = LINE ( 'NONE', #237, #55 ) ;
#236 = CIRCLE ( 'NONE', #52, 6.000000000000000888 ) ;
#237 = CARTESIAN_POINT ( 'NONE',  ( -3.100000000000000089, 0.000000000000000000, 400.0000000000000000 ) ) ;
#238 = DIRECTION ( 'NONE',  ( 1.000000000000000000, 0.000000000000000000, 0.000000000000000000 ) ) ;
#239 = DIRECTION ( 'NONE',  ( -1.000000000000000000, 0.000000000000000000, 0.000000000000000000 ) ) ;
#240 = CARTESIAN_POINT ( 'NONE',  ( -3.100000000000000089, 0.000000000000000000, 5.000000000000000000 ) ) ;
#241 = PERSON_AND_ORGANIZATION ( #102, #117 ) ;
#242 = COORDINATED_UNIVERSAL_TIME_OFFSET ( 1, 0, .AHEAD. ) ;
#243 = DESIGN_CONTEXT ( 'detailed design', #168, 'design' ) ;
#244 =( LENGTH_UNIT ( ) NAMED_UNIT ( * ) SI_UNIT ( .MILLI., .METRE. ) );
#245 = CC_DESIGN_DATE_AND_TIME_ASSIGNMENT ( #104, #164, ( #24 ) ) ;
#246 = DIRECTION ( 'NONE',  ( 0.000000000000000000, 0.000000000000000000, 1.000000000000000000 ) ) ;
#247 = DATE_AND_TIME ( #90, #64 ) ;
#248 = EDGE_LOOP ( 'NONE', ( #95, #56 ) ) ;
#249 = APPROVAL_PERSON_ORGANIZATION ( #241, #43, #163 ) ;
#250 = ORIENTED_EDGE ( 'NONE', *, *, #189, .F. ) ;
#251 = EDGE_LOOP ( 'NONE', ( #250, #19, #76, #171 ) ) ;
#252 = DIRECTION ( 'NONE',  ( 1.000000000000000000, 0.000000000000000000, 0.000000000000000000 ) ) ;
#253 = CC_DESIGN_PERSON_AND_ORGANIZATION_ASSIGNMENT ( #122, #119, ( #14 ) ) ;
#254 = CARTESIAN_POINT ( 'NONE',  ( 0.000000000000000000, 0.000000000000000000, 5.000000000000000000 ) ) ;
#255 = FACE_OUTER_BOUND ( 'NONE', #190, .T. ) ;
ENDSEC;
END-ISO-10303-21;
