ISO-10303-21;
HEADER;
FILE_DESCRIPTION (( 'STEP AP203' ),
    '1' );
FILE_NAME ('d1d9.STEP',
    '2023-02-13T13:45:53',
    ( '' ),
    ( '' ),
    'SwSTEP 2.0',
    'SolidWorks 2019',
    '' );
FILE_SCHEMA (( 'CONFIG_CONTROL_DESIGN' ));
ENDSEC;

DATA;
#1 = ORIENTED_EDGE ( 'NONE', *, *, #227, .F. ) ;
#2 = DIRECTION ( 'NONE',  ( 1.000000000000000000, 0.000000000000000000, 0.000000000000000000 ) ) ;
#3 = DIRECTION ( 'NONE',  ( 0.000000000000000000, 0.000000000000000000, 1.000000000000000000 ) ) ;
#4 = LINE ( 'NONE', #159, #59 ) ;
#5 = DIRECTION ( 'NONE',  ( -1.000000000000000000, 0.000000000000000000, 0.000000000000000000 ) ) ;
#6 = DIRECTION ( 'NONE',  ( 0.000000000000000000, 0.000000000000000000, 1.000000000000000000 ) ) ;
#7 = LOCAL_TIME ( 14, 45, 53.00000000000000000, #75 ) ;
#8 = DIRECTION ( 'NONE',  ( -1.000000000000000000, 0.000000000000000000, 0.000000000000000000 ) ) ;
#9 = CIRCLE ( 'NONE', #68, 7.000000000000000000 ) ;
#10 = FACE_OUTER_BOUND ( 'NONE', #101, .T. ) ;
#11 = DIRECTION ( 'NONE',  ( 1.000000000000000000, 0.000000000000000000, 0.000000000000000000 ) ) ;
#12 = PRODUCT_RELATED_PRODUCT_CATEGORY ( 'detail', '', ( #107 ) ) ;
#13 = DIRECTION ( 'NONE',  ( -0.000000000000000000, -0.000000000000000000, -1.000000000000000000 ) ) ;
#14 = SECURITY_CLASSIFICATION_LEVEL ( 'unclassified' ) ;
#15 = ADVANCED_FACE ( 'NONE', ( #125 ), #241, .T. ) ;
#16 = DIRECTION ( 'NONE',  ( 0.000000000000000000, 0.000000000000000000, 1.000000000000000000 ) ) ;
#17 = MANIFOLD_SOLID_BREP ( 'Pøidat vysunutím3', #52 ) ;
#18 = PERSON_AND_ORGANIZATION ( #77, #86 ) ;
#19 = EDGE_CURVE ( 'NONE', #174, #141, #155, .T. ) ;
#20 = FACE_OUTER_BOUND ( 'NONE', #215, .T. ) ;
#21 = ORIENTED_EDGE ( 'NONE', *, *, #36, .F. ) ;
#22 = AXIS2_PLACEMENT_3D ( 'NONE', #143, #218, #43 ) ;
#23 = APPLICATION_CONTEXT ( 'configuration controlled 3d designs of mechanical parts and assemblies' ) ;
#24 = VERTEX_POINT ( 'NONE', #83 ) ;
#25 = FACE_BOUND ( 'NONE', #191, .T. ) ;
#26 = EDGE_LOOP ( 'NONE', ( #209, #222, #65, #201 ) ) ;
#27 = AXIS2_PLACEMENT_3D ( 'NONE', #178, #3, #82 ) ;
#28 = CARTESIAN_POINT ( 'NONE',  ( 0.000000000000000000, 0.000000000000000000, 250.0000000000000000 ) ) ;
#29 = DIRECTION ( 'NONE',  ( 1.000000000000000000, 0.000000000000000000, 0.000000000000000000 ) ) ;
#30 = APPROVAL_PERSON_ORGANIZATION ( #233, #93, #137 ) ;
#31 = DIRECTION ( 'NONE',  ( 0.000000000000000000, 0.000000000000000000, 1.000000000000000000 ) ) ;
#32 = AXIS2_PLACEMENT_3D ( 'NONE', #33, #131, #11 ) ;
#33 = CARTESIAN_POINT ( 'NONE',  ( 0.000000000000000000, 0.000000000000000000, 6.500000000000000000 ) ) ;
#34 = CYLINDRICAL_SURFACE ( 'NONE', #76, 7.000000000000000000 ) ;
#35 = PERSON_AND_ORGANIZATION_ROLE ( 'creator' ) ;
#36 = EDGE_CURVE ( 'NONE', #24, #81, #9, .T. ) ;
#37 = ORIENTED_EDGE ( 'NONE', *, *, #194, .F. ) ;
#38 = ORIENTED_EDGE ( 'NONE', *, *, #88, .F. ) ;
#39 = ADVANCED_FACE ( 'NONE', ( #25, #85 ), #157, .T. ) ;
#40 = PERSON_AND_ORGANIZATION_ROLE ( 'classification_officer' ) ;
#41 = DATE_AND_TIME ( #99, #7 ) ;
#42 = ORIENTED_EDGE ( 'NONE', *, *, #57, .F. ) ;
#43 = DIRECTION ( 'NONE',  ( 1.000000000000000000, 0.000000000000000000, -0.000000000000000000 ) ) ;
#44 = ORIENTED_EDGE ( 'NONE', *, *, #88, .T. ) ;
#45 = CIRCLE ( 'NONE', #32, 4.500000000000000888 ) ;
#46 = DIRECTION ( 'NONE',  ( 0.000000000000000000, 0.000000000000000000, 1.000000000000000000 ) ) ;
#47 = ADVANCED_FACE ( 'NONE', ( #103 ), #49, .F. ) ;
#48 = AXIS2_PLACEMENT_3D ( 'NONE', #226, #169, #111 ) ;
#49 = PLANE ( 'NONE',  #27 ) ;
#50 = APPROVAL ( #94, 'NEURÈENÝ' ) ;
#51 = CARTESIAN_POINT ( 'NONE',  ( 0.000000000000000000, 0.000000000000000000, 250.0000000000000000 ) ) ;
#52 = CLOSED_SHELL ( 'NONE', ( #110, #251, #69, #39, #47, #15, #176 ) ) ;
#53 = CARTESIAN_POINT ( 'NONE',  ( 4.500000000000000888, 5.510910596163089556E-16, 250.0000000000000000 ) ) ;
#54 = CARTESIAN_POINT ( 'NONE',  ( 0.000000000000000000, 0.000000000000000000, 6.500000000000000000 ) ) ;
#55 = UNCERTAINTY_MEASURE_WITH_UNIT (LENGTH_MEASURE( 1.000000000000000082E-05 ), #245, 'distance_accuracy_value', 'NONE');
#56 = CIRCLE ( 'NONE', #166, 4.500000000000000888 ) ;
#57 = EDGE_CURVE ( 'NONE', #174, #197, #56, .T. ) ;
#58 = COORDINATED_UNIVERSAL_TIME_OFFSET ( 1, 0, .AHEAD. ) ;
#59 = VECTOR ( 'NONE', #129, 1000.000000000000000 ) ;
#60 = APPROVAL_STATUS ( 'not_yet_approved' ) ;
#61 = APPROVAL_DATE_TIME ( #210, #247 ) ;
#62 = APPROVAL_DATE_TIME ( #120, #93 ) ;
#63 = VECTOR ( 'NONE', #221, 1000.000000000000000 ) ;
#64 = EDGE_CURVE ( 'NONE', #102, #81, #4, .T. ) ;
#65 = ORIENTED_EDGE ( 'NONE', *, *, #227, .T. ) ;
#66 = ORIENTED_EDGE ( 'NONE', *, *, #114, .T. ) ;
#67 = ORIENTED_EDGE ( 'NONE', *, *, #124, .F. ) ;
#68 = AXIS2_PLACEMENT_3D ( 'NONE', #217, #46, #2 ) ;
#69 = ADVANCED_FACE ( 'NONE', ( #20 ), #240, .T. ) ;
#70 = CARTESIAN_POINT ( 'NONE',  ( 0.000000000000000000, 0.000000000000000000, 6.500000000000000000 ) ) ;
#71 = AXIS2_PLACEMENT_3D ( 'NONE', #54, #132, #29 ) ;
#72 = DIRECTION ( 'NONE',  ( -0.000000000000000000, -0.000000000000000000, -1.000000000000000000 ) ) ;
#73 = CARTESIAN_POINT ( 'NONE',  ( -7.000000000000000000, 0.000000000000000000, 6.500000000000000000 ) ) ;
#74 =( NAMED_UNIT ( * ) PLANE_ANGLE_UNIT ( ) SI_UNIT ( $, .RADIAN. ) );
#75 = COORDINATED_UNIVERSAL_TIME_OFFSET ( 1, 0, .AHEAD. ) ;
#76 = AXIS2_PLACEMENT_3D ( 'NONE', #182, #72, #8 ) ;
#77 = PERSON ( 'NEURÈENÝ', 'NEURÈENÝ', 'NEURÈENÝ', ('NEURÈENÝ'), ('NEURÈENÝ'), ('NEURÈENÝ') ) ;
#78 = LOCAL_TIME ( 14, 45, 53.00000000000000000, #121 ) ;
#79 = EDGE_LOOP ( 'NONE', ( #67, #175, #144, #177 ) ) ;
#80 = ORIENTED_EDGE ( 'NONE', *, *, #36, .T. ) ;
#81 = VERTEX_POINT ( 'NONE', #228 ) ;
#82 = DIRECTION ( 'NONE',  ( 1.000000000000000000, 0.000000000000000000, -0.000000000000000000 ) ) ;
#83 = CARTESIAN_POINT ( 'NONE',  ( -7.000000000000000000, 0.000000000000000000, 0.000000000000000000 ) ) ;
#84 = AXIS2_PLACEMENT_3D ( 'NONE', #89, #13, #147 ) ;
#85 = FACE_OUTER_BOUND ( 'NONE', #238, .T. ) ;
#86 = ORGANIZATION ( 'NEURÈENÝ', 'NEURÈENÝ', '' ) ;
#87 = FACE_OUTER_BOUND ( 'NONE', #119, .T. ) ;
#88 = EDGE_CURVE ( 'NONE', #141, #195, #45, .T. ) ;
#89 = CARTESIAN_POINT ( 'NONE',  ( 0.000000000000000000, 0.000000000000000000, 250.0000000000000000 ) ) ;
#90 = APPLICATION_CONTEXT ( 'configuration controlled 3d designs of mechanical parts and assemblies' ) ;
#91 = SECURITY_CLASSIFICATION ( '', '', #14 ) ;
#92 = FACE_OUTER_BOUND ( 'NONE', #79, .T. ) ;
#93 = APPROVAL ( #60, 'NEURÈENÝ' ) ;
#94 = APPROVAL_STATUS ( 'not_yet_approved' ) ;
#95 = CALENDAR_DATE ( 2023, 13, 2 ) ;
#96 = DATE_TIME_ROLE ( 'classification_date' ) ;
#97 = CIRCLE ( 'NONE', #239, 7.000000000000000000 ) ;
#98 = PERSON_AND_ORGANIZATION ( #77, #86 ) ;
#99 = CALENDAR_DATE ( 2023, 13, 2 ) ;
#100 = EDGE_CURVE ( 'NONE', #127, #102, #97, .T. ) ;
#101 = EDGE_LOOP ( 'NONE', ( #42, #158, #44, #1 ) ) ;
#102 = VERTEX_POINT ( 'NONE', #184 ) ;
#103 = FACE_OUTER_BOUND ( 'NONE', #126, .T. ) ;
#104 = AXIS2_PLACEMENT_3D ( 'NONE', #28, #205, #134 ) ;
#105 = CC_DESIGN_PERSON_AND_ORGANIZATION_ASSIGNMENT ( #18, #211, ( #250 ) ) ;
#106 = DIRECTION ( 'NONE',  ( 1.000000000000000000, 0.000000000000000000, 0.000000000000000000 ) ) ;
#107 = PRODUCT ( 'd1d9', 'd1d9', '', ( #152 ) ) ;
#108 = ORIENTED_EDGE ( 'NONE', *, *, #100, .F. ) ;
#109 = CARTESIAN_POINT ( 'NONE',  ( -7.000000000000000000, 0.000000000000000000, 6.500000000000000000 ) ) ;
#110 = ADVANCED_FACE ( 'NONE', ( #10 ), #162, .T. ) ;
#111 = DIRECTION ( 'NONE',  ( 1.000000000000000000, 0.000000000000000000, 0.000000000000000000 ) ) ;
#112 = LINE ( 'NONE', #206, #204 ) ;
#113 = AXIS2_PLACEMENT_3D ( 'NONE', #70, #193, #116 ) ;
#114 = EDGE_CURVE ( 'NONE', #197, #174, #192, .T. ) ;
#115 =( NAMED_UNIT ( * ) SI_UNIT ( $, .STERADIAN. ) SOLID_ANGLE_UNIT ( ) );
#116 = DIRECTION ( 'NONE',  ( -1.000000000000000000, 0.000000000000000000, 0.000000000000000000 ) ) ;
#117 = CC_DESIGN_APPROVAL ( #93, ( #139 ) ) ;
#118 = APPLICATION_PROTOCOL_DEFINITION ( 'international standard', 'config_control_design', 1994, #90 ) ;
#119 = EDGE_LOOP ( 'NONE', ( #66, #145 ) ) ;
#120 = DATE_AND_TIME ( #151, #161 ) ;
#121 = COORDINATED_UNIVERSAL_TIME_OFFSET ( 1, 0, .AHEAD. ) ;
#122 = ORIENTED_EDGE ( 'NONE', *, *, #64, .F. ) ;
#123 = APPROVAL_STATUS ( 'not_yet_approved' ) ;
#124 = EDGE_CURVE ( 'NONE', #102, #127, #142, .T. ) ;
#125 = FACE_OUTER_BOUND ( 'NONE', #26, .T. ) ;
#126 = EDGE_LOOP ( 'NONE', ( #21, #37 ) ) ;
#127 = VERTEX_POINT ( 'NONE', #109 ) ;
#128 = CARTESIAN_POINT ( 'NONE',  ( 0.000000000000000000, 0.000000000000000000, 250.0000000000000000 ) ) ;
#129 = DIRECTION ( 'NONE',  ( -0.000000000000000000, -0.000000000000000000, -1.000000000000000000 ) ) ;
#130 = DIRECTION ( 'NONE',  ( 1.000000000000000000, 0.000000000000000000, -0.000000000000000000 ) ) ;
#131 = DIRECTION ( 'NONE',  ( 0.000000000000000000, 0.000000000000000000, 1.000000000000000000 ) ) ;
#132 = DIRECTION ( 'NONE',  ( 0.000000000000000000, 0.000000000000000000, 1.000000000000000000 ) ) ;
#133 = CARTESIAN_POINT ( 'NONE',  ( -4.500000000000000888, 0.000000000000000000, 6.500000000000000000 ) ) ;
#134 = DIRECTION ( 'NONE',  ( 1.000000000000000000, 0.000000000000000000, 0.000000000000000000 ) ) ;
#135 = DATE_AND_TIME ( #170, #78 ) ;
#136 = APPROVAL_ROLE ( '' ) ;
#137 = APPROVAL_ROLE ( '' ) ;
#138 = CALENDAR_DATE ( 2023, 13, 2 ) ;
#139 = PRODUCT_DEFINITION ( 'NEZNÁMÝ', '', #250, #163 ) ;
#140 = CARTESIAN_POINT ( 'NONE',  ( 4.500000000000000888, 5.510910596163089556E-16, 250.0000000000000000 ) ) ;
#141 = VERTEX_POINT ( 'NONE', #181 ) ;
#142 = CIRCLE ( 'NONE', #242, 7.000000000000000000 ) ;
#143 = CARTESIAN_POINT ( 'NONE',  ( 0.000000000000000000, 0.000000000000000000, 6.500000000000000000 ) ) ;
#144 = ORIENTED_EDGE ( 'NONE', *, *, #194, .T. ) ;
#145 = ORIENTED_EDGE ( 'NONE', *, *, #57, .T. ) ;
#146 = CARTESIAN_POINT ( 'NONE',  ( -4.500000000000000888, 0.000000000000000000, 250.0000000000000000 ) ) ;
#147 = DIRECTION ( 'NONE',  ( -1.000000000000000000, 0.000000000000000000, 0.000000000000000000 ) ) ;
#148 = DIRECTION ( 'NONE',  ( -0.000000000000000000, -0.000000000000000000, -1.000000000000000000 ) ) ;
#149 = CC_DESIGN_APPROVAL ( #247, ( #250 ) ) ;
#150 = APPLICATION_PROTOCOL_DEFINITION ( 'international standard', 'config_control_design', 1994, #23 ) ;
#151 = CALENDAR_DATE ( 2023, 13, 2 ) ;
#152 = MECHANICAL_CONTEXT ( 'NONE', #23, 'mechanical' ) ;
#153 = DIRECTION ( 'NONE',  ( 1.000000000000000000, 0.000000000000000000, 0.000000000000000000 ) ) ;
#154 = CIRCLE ( 'NONE', #48, 7.000000000000000000 ) ;
#155 = LINE ( 'NONE', #140, #63 ) ;
#156 = EDGE_CURVE ( 'NONE', #127, #24, #230, .T. ) ;
#157 = PLANE ( 'NONE',  #22 ) ;
#158 = ORIENTED_EDGE ( 'NONE', *, *, #19, .T. ) ;
#159 = CARTESIAN_POINT ( 'NONE',  ( 7.000000000000000000, 8.572527594031471218E-16, 6.500000000000000000 ) ) ;
#160 = DIRECTION ( 'NONE',  ( -0.000000000000000000, -0.000000000000000000, -1.000000000000000000 ) ) ;
#161 = LOCAL_TIME ( 14, 45, 53.00000000000000000, #58 ) ;
#162 = CYLINDRICAL_SURFACE ( 'NONE', #84, 4.500000000000000888 ) ;
#163 = DESIGN_CONTEXT ( 'detailed design', #90, 'design' ) ;
#164 = EDGE_CURVE ( 'NONE', #195, #141, #207, .T. ) ;
#165 = CARTESIAN_POINT ( 'NONE',  ( 0.000000000000000000, 0.000000000000000000, 6.500000000000000000 ) ) ;
#166 = AXIS2_PLACEMENT_3D ( 'NONE', #128, #198, #106 ) ;
#167 = CC_DESIGN_DATE_AND_TIME_ASSIGNMENT ( #171, #185, ( #139 ) ) ;
#168 = APPROVAL_PERSON_ORGANIZATION ( #232, #247, #136 ) ;
#169 = DIRECTION ( 'NONE',  ( 0.000000000000000000, 0.000000000000000000, 1.000000000000000000 ) ) ;
#170 = CALENDAR_DATE ( 2023, 13, 2 ) ;
#171 = DATE_AND_TIME ( #95, #254 ) ;
#172 =( GEOMETRIC_REPRESENTATION_CONTEXT ( 3 ) GLOBAL_UNCERTAINTY_ASSIGNED_CONTEXT ( ( #55 ) ) GLOBAL_UNIT_ASSIGNED_CONTEXT ( ( #245, #74, #115 ) ) REPRESENTATION_CONTEXT ( 'NONE', 'WORKASPACE' ) );
#173 = APPROVAL_DATE_TIME ( #135, #50 ) ;
#174 = VERTEX_POINT ( 'NONE', #53 ) ;
#175 = ORIENTED_EDGE ( 'NONE', *, *, #64, .T. ) ;
#176 = ADVANCED_FACE ( 'NONE', ( #87 ), #243, .T. ) ;
#177 = ORIENTED_EDGE ( 'NONE', *, *, #156, .F. ) ;
#178 = CARTESIAN_POINT ( 'NONE',  ( 0.000000000000000000, 0.000000000000000000, 0.000000000000000000 ) ) ;
#179 = ORIENTED_EDGE ( 'NONE', *, *, #156, .T. ) ;
#180 = ORIENTED_EDGE ( 'NONE', *, *, #100, .T. ) ;
#181 = CARTESIAN_POINT ( 'NONE',  ( 4.500000000000000888, 5.510910596163089556E-16, 6.500000000000000000 ) ) ;
#182 = CARTESIAN_POINT ( 'NONE',  ( 0.000000000000000000, 0.000000000000000000, 6.500000000000000000 ) ) ;
#183 = DIRECTION ( 'NONE',  ( -0.000000000000000000, -0.000000000000000000, -1.000000000000000000 ) ) ;
#184 = CARTESIAN_POINT ( 'NONE',  ( 7.000000000000000000, 8.572527594031471218E-16, 6.500000000000000000 ) ) ;
#185 = DATE_TIME_ROLE ( 'creation_date' ) ;
#186 = ORIENTED_EDGE ( 'NONE', *, *, #124, .T. ) ;
#187 = CARTESIAN_POINT ( 'NONE',  ( 0.000000000000000000, 0.000000000000000000, 0.000000000000000000 ) ) ;
#188 = PERSON_AND_ORGANIZATION ( #77, #86 ) ;
#189 = AXIS2_PLACEMENT_3D ( 'NONE', #187, #16, #153 ) ;
#190 = COORDINATED_UNIVERSAL_TIME_OFFSET ( 1, 0, .AHEAD. ) ;
#191 = EDGE_LOOP ( 'NONE', ( #236, #38 ) ) ;
#192 = CIRCLE ( 'NONE', #104, 4.500000000000000888 ) ;
#193 = DIRECTION ( 'NONE',  ( -0.000000000000000000, -0.000000000000000000, -1.000000000000000000 ) ) ;
#194 = EDGE_CURVE ( 'NONE', #81, #24, #154, .T. ) ;
#195 = VERTEX_POINT ( 'NONE', #133 ) ;
#196 = CC_DESIGN_PERSON_AND_ORGANIZATION_ASSIGNMENT ( #98, #213, ( #250 ) ) ;
#197 = VERTEX_POINT ( 'NONE', #146 ) ;
#198 = DIRECTION ( 'NONE',  ( 0.000000000000000000, 0.000000000000000000, 1.000000000000000000 ) ) ;
#199 = CC_DESIGN_APPROVAL ( #50, ( #91 ) ) ;
#200 = CC_DESIGN_PERSON_AND_ORGANIZATION_ASSIGNMENT ( #214, #40, ( #91 ) ) ;
#201 = ORIENTED_EDGE ( 'NONE', *, *, #164, .T. ) ;
#202 = CARTESIAN_POINT ( 'NONE',  ( 0.000000000000000000, 0.000000000000000000, 6.500000000000000000 ) ) ;
#203 = DIRECTION ( 'NONE',  ( 1.000000000000000000, 0.000000000000000000, 0.000000000000000000 ) ) ;
#204 = VECTOR ( 'NONE', #183, 1000.000000000000000 ) ;
#205 = DIRECTION ( 'NONE',  ( 0.000000000000000000, 0.000000000000000000, 1.000000000000000000 ) ) ;
#206 = CARTESIAN_POINT ( 'NONE',  ( -4.500000000000000888, 0.000000000000000000, 250.0000000000000000 ) ) ;
#207 = CIRCLE ( 'NONE', #71, 4.500000000000000888 ) ;
#208 = PERSON_AND_ORGANIZATION ( #77, #86 ) ;
#209 = ORIENTED_EDGE ( 'NONE', *, *, #19, .F. ) ;
#210 = DATE_AND_TIME ( #138, #231 ) ;
#211 = PERSON_AND_ORGANIZATION_ROLE ( 'creator' ) ;
#212 = CC_DESIGN_PERSON_AND_ORGANIZATION_ASSIGNMENT ( #208, #248, ( #107 ) ) ;
#213 = PERSON_AND_ORGANIZATION_ROLE ( 'design_supplier' ) ;
#214 = PERSON_AND_ORGANIZATION ( #77, #86 ) ;
#215 = EDGE_LOOP ( 'NONE', ( #122, #108, #179, #80 ) ) ;
#216 = CC_DESIGN_PERSON_AND_ORGANIZATION_ASSIGNMENT ( #234, #35, ( #139 ) ) ;
#217 = CARTESIAN_POINT ( 'NONE',  ( 0.000000000000000000, 0.000000000000000000, 0.000000000000000000 ) ) ;
#218 = DIRECTION ( 'NONE',  ( 0.000000000000000000, 0.000000000000000000, 1.000000000000000000 ) ) ;
#219 = AXIS2_PLACEMENT_3D ( 'NONE', #235, #160, #5 ) ;
#220 = ADVANCED_BREP_SHAPE_REPRESENTATION ( 'd1d9', ( #17, #189 ), #172 ) ;
#221 = DIRECTION ( 'NONE',  ( -0.000000000000000000, -0.000000000000000000, -1.000000000000000000 ) ) ;
#222 = ORIENTED_EDGE ( 'NONE', *, *, #114, .F. ) ;
#223 = CC_DESIGN_SECURITY_CLASSIFICATION ( #91, ( #250 ) ) ;
#224 = PRODUCT_DEFINITION_SHAPE ( 'NONE', 'NONE',  #139 ) ;
#225 = DIRECTION ( 'NONE',  ( 1.000000000000000000, 0.000000000000000000, 0.000000000000000000 ) ) ;
#226 = CARTESIAN_POINT ( 'NONE',  ( 0.000000000000000000, 0.000000000000000000, 0.000000000000000000 ) ) ;
#227 = EDGE_CURVE ( 'NONE', #197, #195, #112, .T. ) ;
#228 = CARTESIAN_POINT ( 'NONE',  ( 7.000000000000000000, 8.572527594031471218E-16, 0.000000000000000000 ) ) ;
#229 = APPROVAL_PERSON_ORGANIZATION ( #188, #50, #253 ) ;
#230 = LINE ( 'NONE', #73, #237 ) ;
#231 = LOCAL_TIME ( 14, 45, 53.00000000000000000, #252 ) ;
#232 = PERSON_AND_ORGANIZATION ( #77, #86 ) ;
#233 = PERSON_AND_ORGANIZATION ( #77, #86 ) ;
#234 = PERSON_AND_ORGANIZATION ( #77, #86 ) ;
#235 = CARTESIAN_POINT ( 'NONE',  ( 0.000000000000000000, 0.000000000000000000, 250.0000000000000000 ) ) ;
#236 = ORIENTED_EDGE ( 'NONE', *, *, #164, .F. ) ;
#237 = VECTOR ( 'NONE', #148, 1000.000000000000000 ) ;
#238 = EDGE_LOOP ( 'NONE', ( #180, #186 ) ) ;
#239 = AXIS2_PLACEMENT_3D ( 'NONE', #202, #6, #225 ) ;
#240 = CYLINDRICAL_SURFACE ( 'NONE', #113, 7.000000000000000000 ) ;
#241 = CYLINDRICAL_SURFACE ( 'NONE', #219, 4.500000000000000888 ) ;
#242 = AXIS2_PLACEMENT_3D ( 'NONE', #165, #244, #203 ) ;
#243 = PLANE ( 'NONE',  #246 ) ;
#244 = DIRECTION ( 'NONE',  ( 0.000000000000000000, 0.000000000000000000, 1.000000000000000000 ) ) ;
#245 =( LENGTH_UNIT ( ) NAMED_UNIT ( * ) SI_UNIT ( .MILLI., .METRE. ) );
#246 = AXIS2_PLACEMENT_3D ( 'NONE', #51, #31, #130 ) ;
#247 = APPROVAL ( #123, 'NEURÈENÝ' ) ;
#248 = PERSON_AND_ORGANIZATION_ROLE ( 'design_owner' ) ;
#249 = SHAPE_DEFINITION_REPRESENTATION ( #224, #220 ) ;
#250 = PRODUCT_DEFINITION_FORMATION_WITH_SPECIFIED_SOURCE ( 'LIBOVOLNÝ', '', #107, .NOT_KNOWN. ) ;
#251 = ADVANCED_FACE ( 'NONE', ( #92 ), #34, .T. ) ;
#252 = COORDINATED_UNIVERSAL_TIME_OFFSET ( 1, 0, .AHEAD. ) ;
#253 = APPROVAL_ROLE ( '' ) ;
#254 = LOCAL_TIME ( 14, 45, 53.00000000000000000, #190 ) ;
#255 = CC_DESIGN_DATE_AND_TIME_ASSIGNMENT ( #41, #96, ( #91 ) ) ;
ENDSEC;
END-ISO-10303-21;
