ISO-10303-21;
HEADER;
FILE_DESCRIPTION (( 'STEP AP203' ),
    '1' );
FILE_NAME ('3e2c.STEP',
    '2023-02-13T16:53:13',
    ( '' ),
    ( '' ),
    'SwSTEP 2.0',
    'SolidWorks 2019',
    '' );
FILE_SCHEMA (( 'CONFIG_CONTROL_DESIGN' ));
ENDSEC;

DATA;
#1 = CALENDAR_DATE ( 2023, 13, 2 ) ;
#2 = CYLINDRICAL_SURFACE ( 'NONE', #255, 1.600000000000000089 ) ;
#3 = PERSON_AND_ORGANIZATION_ROLE ( 'creator' ) ;
#4 = DIRECTION ( 'NONE',  ( 0.000000000000000000, 0.000000000000000000, 1.000000000000000000 ) ) ;
#5 = CIRCLE ( 'NONE', #211, 3.000000000000000444 ) ;
#6 = ORIENTED_EDGE ( 'NONE', *, *, #98, .T. ) ;
#7 = PRODUCT_DEFINITION ( 'NEZNÁMÝ', '', #227, #35 ) ;
#8 = FACE_OUTER_BOUND ( 'NONE', #40, .T. ) ;
#9 = CC_DESIGN_APPROVAL ( #27, ( #205 ) ) ;
#10 = DIRECTION ( 'NONE',  ( -0.000000000000000000, -0.000000000000000000, -1.000000000000000000 ) ) ;
#11 = DIRECTION ( 'NONE',  ( 0.000000000000000000, 0.000000000000000000, 1.000000000000000000 ) ) ;
#12 = ADVANCED_FACE ( 'NONE', ( #76, #202 ), #22, .T. ) ;
#13 = DIRECTION ( 'NONE',  ( 1.000000000000000000, 0.000000000000000000, 0.000000000000000000 ) ) ;
#14 = AXIS2_PLACEMENT_3D ( 'NONE', #237, #50, #179 ) ;
#15 = PLANE ( 'NONE',  #238 ) ;
#16 = CARTESIAN_POINT ( 'NONE',  ( 0.000000000000000000, 0.000000000000000000, 0.000000000000000000 ) ) ;
#17 = ORIENTED_EDGE ( 'NONE', *, *, #25, .F. ) ;
#18 = ADVANCED_FACE ( 'NONE', ( #72 ), #168, .T. ) ;
#19 = APPROVAL_ROLE ( '' ) ;
#20 = VECTOR ( 'NONE', #97, 1000.000000000000000 ) ;
#21 = CALENDAR_DATE ( 2023, 13, 2 ) ;
#22 = PLANE ( 'NONE',  #110 ) ;
#23 = AXIS2_PLACEMENT_3D ( 'NONE', #47, #165, #223 ) ;
#24 = PERSON_AND_ORGANIZATION ( #63, #245 ) ;
#25 = EDGE_CURVE ( 'NONE', #173, #208, #167, .T. ) ;
#26 = CARTESIAN_POINT ( 'NONE',  ( 1.600000000000000089, 1.959434878635765230E-16, 160.0000000000000000 ) ) ;
#27 = APPROVAL ( #134, 'NEURÈENÝ' ) ;
#28 = DIRECTION ( 'NONE',  ( -0.000000000000000000, -0.000000000000000000, -1.000000000000000000 ) ) ;
#29 = DATE_AND_TIME ( #1, #124 ) ;
#30 = LINE ( 'NONE', #204, #120 ) ;
#31 = APPLICATION_CONTEXT ( 'configuration controlled 3d designs of mechanical parts and assemblies' ) ;
#32 = APPROVAL ( #103, 'NEURÈENÝ' ) ;
#33 = LOCAL_TIME ( 17, 53, 13.00000000000000000, #105 ) ;
#34 = LINE ( 'NONE', #226, #20 ) ;
#35 = DESIGN_CONTEXT ( 'detailed design', #31, 'design' ) ;
#36 = CARTESIAN_POINT ( 'NONE',  ( 0.000000000000000000, 0.000000000000000000, 0.000000000000000000 ) ) ;
#37 = ADVANCED_FACE ( 'NONE', ( #144 ), #54, .T. ) ;
#38 = ORIENTED_EDGE ( 'NONE', *, *, #57, .T. ) ;
#39 = VERTEX_POINT ( 'NONE', #26 ) ;
#40 = EDGE_LOOP ( 'NONE', ( #152, #253, #38, #99 ) ) ;
#41 = CC_DESIGN_PERSON_AND_ORGANIZATION_ASSIGNMENT ( #95, #3, ( #7 ) ) ;
#42 = APPLICATION_PROTOCOL_DEFINITION ( 'international standard', 'config_control_design', 1994, #31 ) ;
#43 = ORIENTED_EDGE ( 'NONE', *, *, #83, .T. ) ;
#44 = CALENDAR_DATE ( 2023, 13, 2 ) ;
#45 = ORIENTED_EDGE ( 'NONE', *, *, #189, .T. ) ;
#46 = PERSON_AND_ORGANIZATION_ROLE ( 'design_supplier' ) ;
#47 = CARTESIAN_POINT ( 'NONE',  ( 0.000000000000000000, 0.000000000000000000, 160.0000000000000000 ) ) ;
#48 = DATE_AND_TIME ( #67, #33 ) ;
#49 = APPROVAL_ROLE ( '' ) ;
#50 = DIRECTION ( 'NONE',  ( -0.000000000000000000, -0.000000000000000000, -1.000000000000000000 ) ) ;
#51 = DIRECTION ( 'NONE',  ( 0.000000000000000000, 0.000000000000000000, 1.000000000000000000 ) ) ;
#52 = VECTOR ( 'NONE', #148, 1000.000000000000000 ) ;
#53 = CC_DESIGN_PERSON_AND_ORGANIZATION_ASSIGNMENT ( #159, #214, ( #209 ) ) ;
#54 = CYLINDRICAL_SURFACE ( 'NONE', #14, 3.000000000000000444 ) ;
#55 = PERSON_AND_ORGANIZATION_ROLE ( 'creator' ) ;
#56 = CARTESIAN_POINT ( 'NONE',  ( 3.000000000000000444, 3.673940397442060361E-16, 3.000000000000000000 ) ) ;
#57 = EDGE_CURVE ( 'NONE', #216, #173, #196, .T. ) ;
#58 = CARTESIAN_POINT ( 'NONE',  ( -3.000000000000000444, 0.000000000000000000, 3.000000000000000000 ) ) ;
#59 = CIRCLE ( 'NONE', #108, 1.600000000000000089 ) ;
#60 = EDGE_CURVE ( 'NONE', #234, #81, #154, .T. ) ;
#61 = AXIS2_PLACEMENT_3D ( 'NONE', #197, #51, #87 ) ;
#62 = EDGE_LOOP ( 'NONE', ( #207, #160, #158, #231 ) ) ;
#63 = PERSON ( 'NEURÈENÝ', 'NEURÈENÝ', 'NEURÈENÝ', ('NEURÈENÝ'), ('NEURÈENÝ'), ('NEURÈENÝ') ) ;
#64 = AXIS2_PLACEMENT_3D ( 'NONE', #128, #163, #183 ) ;
#65 = COORDINATED_UNIVERSAL_TIME_OFFSET ( 1, 0, .AHEAD. ) ;
#66 = EDGE_LOOP ( 'NONE', ( #93, #195 ) ) ;
#67 = CALENDAR_DATE ( 2023, 13, 2 ) ;
#68 = DIRECTION ( 'NONE',  ( -1.000000000000000000, 0.000000000000000000, 0.000000000000000000 ) ) ;
#69 = APPROVAL_PERSON_ORGANIZATION ( #123, #32, #19 ) ;
#70 = ADVANCED_FACE ( 'NONE', ( #8 ), #2, .T. ) ;
#71 = CALENDAR_DATE ( 2023, 13, 2 ) ;
#72 = FACE_OUTER_BOUND ( 'NONE', #102, .T. ) ;
#73 = DATE_TIME_ROLE ( 'creation_date' ) ;
#74 = DIRECTION ( 'NONE',  ( 1.000000000000000000, 0.000000000000000000, 0.000000000000000000 ) ) ;
#75 = LOCAL_TIME ( 17, 53, 13.00000000000000000, #215 ) ;
#76 = FACE_BOUND ( 'NONE', #212, .T. ) ;
#77 = CYLINDRICAL_SURFACE ( 'NONE', #130, 1.600000000000000089 ) ;
#78 = AXIS2_PLACEMENT_3D ( 'NONE', #146, #111, #186 ) ;
#79 = EDGE_LOOP ( 'NONE', ( #84, #172, #82, #251 ) ) ;
#80 = CARTESIAN_POINT ( 'NONE',  ( -1.600000000000000089, 0.000000000000000000, 160.0000000000000000 ) ) ;
#81 = VERTEX_POINT ( 'NONE', #218 ) ;
#82 = ORIENTED_EDGE ( 'NONE', *, *, #184, .T. ) ;
#83 = EDGE_CURVE ( 'NONE', #141, #156, #150, .T. ) ;
#84 = ORIENTED_EDGE ( 'NONE', *, *, #113, .F. ) ;
#85 = EDGE_CURVE ( 'NONE', #208, #173, #177, .T. ) ;
#86 = APPROVAL_DATE_TIME ( #198, #32 ) ;
#87 = DIRECTION ( 'NONE',  ( 1.000000000000000000, 0.000000000000000000, 0.000000000000000000 ) ) ;
#88 = DATE_AND_TIME ( #71, #75 ) ;
#89 = AXIS2_PLACEMENT_3D ( 'NONE', #201, #4, #220 ) ;
#90 = CC_DESIGN_PERSON_AND_ORGANIZATION_ASSIGNMENT ( #127, #46, ( #227 ) ) ;
#91 = DIRECTION ( 'NONE',  ( -0.000000000000000000, -0.000000000000000000, -1.000000000000000000 ) ) ;
#92 = CYLINDRICAL_SURFACE ( 'NONE', #143, 3.000000000000000444 ) ;
#93 = ORIENTED_EDGE ( 'NONE', *, *, #224, .F. ) ;
#94 = DIRECTION ( 'NONE',  ( 0.000000000000000000, 0.000000000000000000, 1.000000000000000000 ) ) ;
#95 = PERSON_AND_ORGANIZATION ( #63, #245 ) ;
#96 = AXIS2_PLACEMENT_3D ( 'NONE', #151, #11, #135 ) ;
#97 = DIRECTION ( 'NONE',  ( -0.000000000000000000, -0.000000000000000000, -1.000000000000000000 ) ) ;
#98 = EDGE_CURVE ( 'NONE', #156, #141, #242, .T. ) ;
#99 = ORIENTED_EDGE ( 'NONE', *, *, #25, .T. ) ;
#100 = DIRECTION ( 'NONE',  ( 1.000000000000000000, 0.000000000000000000, 0.000000000000000000 ) ) ;
#101 = DIRECTION ( 'NONE',  ( 1.000000000000000000, 0.000000000000000000, 0.000000000000000000 ) ) ;
#102 = EDGE_LOOP ( 'NONE', ( #229, #119 ) ) ;
#103 = APPROVAL_STATUS ( 'not_yet_approved' ) ;
#104 = LOCAL_TIME ( 17, 53, 13.00000000000000000, #65 ) ;
#105 = COORDINATED_UNIVERSAL_TIME_OFFSET ( 1, 0, .AHEAD. ) ;
#106 = CARTESIAN_POINT ( 'NONE',  ( -1.600000000000000089, 0.000000000000000000, 160.0000000000000000 ) ) ;
#107 = DATE_TIME_ROLE ( 'classification_date' ) ;
#108 = AXIS2_PLACEMENT_3D ( 'NONE', #132, #94, #13 ) ;
#109 = ADVANCED_FACE ( 'NONE', ( #187 ), #92, .T. ) ;
#110 = AXIS2_PLACEMENT_3D ( 'NONE', #241, #149, #199 ) ;
#111 = DIRECTION ( 'NONE',  ( 0.000000000000000000, 0.000000000000000000, 1.000000000000000000 ) ) ;
#112 = CARTESIAN_POINT ( 'NONE',  ( 3.000000000000000444, 3.673940397442060361E-16, 3.000000000000000000 ) ) ;
#113 = EDGE_CURVE ( 'NONE', #156, #234, #138, .T. ) ;
#114 = DIRECTION ( 'NONE',  ( -1.000000000000000000, 0.000000000000000000, 0.000000000000000000 ) ) ;
#115 = APPROVAL_PERSON_ORGANIZATION ( #145, #254, #239 ) ;
#116 = CARTESIAN_POINT ( 'NONE',  ( 1.600000000000000089, 1.959434878635765230E-16, 3.000000000000000000 ) ) ;
#117 = UNCERTAINTY_MEASURE_WITH_UNIT (LENGTH_MEASURE( 1.000000000000000082E-05 ), #194, 'distance_accuracy_value', 'NONE');
#118 = ADVANCED_BREP_SHAPE_REPRESENTATION ( '3e2c', ( #164, #181 ), #232 ) ;
#119 = ORIENTED_EDGE ( 'NONE', *, *, #166, .T. ) ;
#120 = VECTOR ( 'NONE', #133, 1000.000000000000000 ) ;
#121 = CARTESIAN_POINT ( 'NONE',  ( 0.000000000000000000, 0.000000000000000000, 0.000000000000000000 ) ) ;
#122 = CARTESIAN_POINT ( 'NONE',  ( 3.000000000000000444, 3.673940397442060361E-16, 0.000000000000000000 ) ) ;
#123 = PERSON_AND_ORGANIZATION ( #63, #245 ) ;
#124 = LOCAL_TIME ( 17, 53, 13.00000000000000000, #219 ) ;
#125 = ORIENTED_EDGE ( 'NONE', *, *, #166, .F. ) ;
#126 = CARTESIAN_POINT ( 'NONE',  ( 0.000000000000000000, 0.000000000000000000, 3.000000000000000000 ) ) ;
#127 = PERSON_AND_ORGANIZATION ( #63, #245 ) ;
#128 = CARTESIAN_POINT ( 'NONE',  ( 0.000000000000000000, 0.000000000000000000, 0.000000000000000000 ) ) ;
#129 = APPROVAL_DATE_TIME ( #29, #27 ) ;
#130 = AXIS2_PLACEMENT_3D ( 'NONE', #203, #248, #114 ) ;
#131 = CARTESIAN_POINT ( 'NONE',  ( 0.000000000000000000, 0.000000000000000000, 160.0000000000000000 ) ) ;
#132 = CARTESIAN_POINT ( 'NONE',  ( 0.000000000000000000, 0.000000000000000000, 160.0000000000000000 ) ) ;
#133 = DIRECTION ( 'NONE',  ( -0.000000000000000000, -0.000000000000000000, -1.000000000000000000 ) ) ;
#134 = APPROVAL_STATUS ( 'not_yet_approved' ) ;
#135 = DIRECTION ( 'NONE',  ( 1.000000000000000000, 0.000000000000000000, 0.000000000000000000 ) ) ;
#136 = CLOSED_SHELL ( 'NONE', ( #139, #37, #109, #12, #213, #70, #18 ) ) ;
#137 = CARTESIAN_POINT ( 'NONE',  ( 0.000000000000000000, 0.000000000000000000, 3.000000000000000000 ) ) ;
#138 = LINE ( 'NONE', #56, #246 ) ;
#139 = ADVANCED_FACE ( 'NONE', ( #171 ), #77, .T. ) ;
#140 = LOCAL_TIME ( 17, 53, 13.00000000000000000, #162 ) ;
#141 = VERTEX_POINT ( 'NONE', #58 ) ;
#142 = SECURITY_CLASSIFICATION_LEVEL ( 'unclassified' ) ;
#143 = AXIS2_PLACEMENT_3D ( 'NONE', #137, #28, #225 ) ;
#144 = FACE_OUTER_BOUND ( 'NONE', #62, .T. ) ;
#145 = PERSON_AND_ORGANIZATION ( #63, #245 ) ;
#146 = CARTESIAN_POINT ( 'NONE',  ( 0.000000000000000000, 0.000000000000000000, 3.000000000000000000 ) ) ;
#147 = DATE_AND_TIME ( #44, #104 ) ;
#148 = DIRECTION ( 'NONE',  ( -0.000000000000000000, -0.000000000000000000, -1.000000000000000000 ) ) ;
#149 = DIRECTION ( 'NONE',  ( 0.000000000000000000, 0.000000000000000000, 1.000000000000000000 ) ) ;
#150 = CIRCLE ( 'NONE', #182, 3.000000000000000444 ) ;
#151 = CARTESIAN_POINT ( 'NONE',  ( 0.000000000000000000, 0.000000000000000000, 160.0000000000000000 ) ) ;
#152 = ORIENTED_EDGE ( 'NONE', *, *, #189, .F. ) ;
#153 = APPROVAL_DATE_TIME ( #48, #254 ) ;
#154 = CIRCLE ( 'NONE', #64, 3.000000000000000444 ) ;
#155 = DIRECTION ( 'NONE',  ( 0.000000000000000000, 0.000000000000000000, 1.000000000000000000 ) ) ;
#156 = VERTEX_POINT ( 'NONE', #112 ) ;
#157 =( NAMED_UNIT ( * ) SI_UNIT ( $, .STERADIAN. ) SOLID_ANGLE_UNIT ( ) );
#158 = ORIENTED_EDGE ( 'NONE', *, *, #60, .T. ) ;
#159 = PERSON_AND_ORGANIZATION ( #63, #245 ) ;
#160 = ORIENTED_EDGE ( 'NONE', *, *, #113, .T. ) ;
#161 = EDGE_CURVE ( 'NONE', #216, #39, #59, .T. ) ;
#162 = COORDINATED_UNIVERSAL_TIME_OFFSET ( 1, 0, .AHEAD. ) ;
#163 = DIRECTION ( 'NONE',  ( 0.000000000000000000, 0.000000000000000000, 1.000000000000000000 ) ) ;
#164 = MANIFOLD_SOLID_BREP ( 'Pøidat vysunutím3', #136 ) ;
#165 = DIRECTION ( 'NONE',  ( 0.000000000000000000, 0.000000000000000000, 1.000000000000000000 ) ) ;
#166 = EDGE_CURVE ( 'NONE', #39, #216, #192, .T. ) ;
#167 = CIRCLE ( 'NONE', #89, 1.600000000000000089 ) ;
#168 = PLANE ( 'NONE',  #23 ) ;
#169 = PRODUCT_RELATED_PRODUCT_CATEGORY ( 'detail', '', ( #209 ) ) ;
#170 = ORIENTED_EDGE ( 'NONE', *, *, #57, .F. ) ;
#171 = FACE_OUTER_BOUND ( 'NONE', #250, .T. ) ;
#172 = ORIENTED_EDGE ( 'NONE', *, *, #83, .F. ) ;
#173 = VERTEX_POINT ( 'NONE', #188 ) ;
#174 = CC_DESIGN_PERSON_AND_ORGANIZATION_ASSIGNMENT ( #24, #55, ( #227 ) ) ;
#175 = MECHANICAL_CONTEXT ( 'NONE', #228, 'mechanical' ) ;
#176 = CC_DESIGN_APPROVAL ( #254, ( #227 ) ) ;
#177 = CIRCLE ( 'NONE', #61, 1.600000000000000089 ) ;
#178 = PERSON_AND_ORGANIZATION ( #63, #245 ) ;
#179 = DIRECTION ( 'NONE',  ( -1.000000000000000000, 0.000000000000000000, 0.000000000000000000 ) ) ;
#180 = ORIENTED_EDGE ( 'NONE', *, *, #85, .F. ) ;
#181 = AXIS2_PLACEMENT_3D ( 'NONE', #121, #252, #101 ) ;
#182 = AXIS2_PLACEMENT_3D ( 'NONE', #126, #240, #74 ) ;
#183 = DIRECTION ( 'NONE',  ( 1.000000000000000000, 0.000000000000000000, 0.000000000000000000 ) ) ;
#184 = EDGE_CURVE ( 'NONE', #141, #81, #30, .T. ) ;
#185 = CC_DESIGN_SECURITY_CLASSIFICATION ( #205, ( #227 ) ) ;
#186 = DIRECTION ( 'NONE',  ( 1.000000000000000000, 0.000000000000000000, 0.000000000000000000 ) ) ;
#187 = FACE_OUTER_BOUND ( 'NONE', #79, .T. ) ;
#188 = CARTESIAN_POINT ( 'NONE',  ( -1.600000000000000089, 0.000000000000000000, 3.000000000000000000 ) ) ;
#189 = EDGE_CURVE ( 'NONE', #39, #208, #34, .T. ) ;
#190 = FACE_OUTER_BOUND ( 'NONE', #66, .T. ) ;
#191 = ORIENTED_EDGE ( 'NONE', *, *, #85, .T. ) ;
#192 = CIRCLE ( 'NONE', #96, 1.600000000000000089 ) ;
#193 =( NAMED_UNIT ( * ) PLANE_ANGLE_UNIT ( ) SI_UNIT ( $, .RADIAN. ) );
#194 =( LENGTH_UNIT ( ) NAMED_UNIT ( * ) SI_UNIT ( .MILLI., .METRE. ) );
#195 = ORIENTED_EDGE ( 'NONE', *, *, #60, .F. ) ;
#196 = LINE ( 'NONE', #106, #52 ) ;
#197 = CARTESIAN_POINT ( 'NONE',  ( 0.000000000000000000, 0.000000000000000000, 3.000000000000000000 ) ) ;
#198 = DATE_AND_TIME ( #21, #140 ) ;
#199 = DIRECTION ( 'NONE',  ( 1.000000000000000000, 0.000000000000000000, -0.000000000000000000 ) ) ;
#200 = SHAPE_DEFINITION_REPRESENTATION ( #235, #118 ) ;
#201 = CARTESIAN_POINT ( 'NONE',  ( 0.000000000000000000, 0.000000000000000000, 3.000000000000000000 ) ) ;
#202 = FACE_OUTER_BOUND ( 'NONE', #243, .T. ) ;
#203 = CARTESIAN_POINT ( 'NONE',  ( 0.000000000000000000, 0.000000000000000000, 160.0000000000000000 ) ) ;
#204 = CARTESIAN_POINT ( 'NONE',  ( -3.000000000000000444, 0.000000000000000000, 3.000000000000000000 ) ) ;
#205 = SECURITY_CLASSIFICATION ( '', '', #142 ) ;
#206 = CC_DESIGN_DATE_AND_TIME_ASSIGNMENT ( #147, #107, ( #205 ) ) ;
#207 = ORIENTED_EDGE ( 'NONE', *, *, #98, .F. ) ;
#208 = VERTEX_POINT ( 'NONE', #116 ) ;
#209 = PRODUCT ( '3e2c', '3e2c', '', ( #175 ) ) ;
#210 = DIRECTION ( 'NONE',  ( 1.000000000000000000, 0.000000000000000000, -0.000000000000000000 ) ) ;
#211 = AXIS2_PLACEMENT_3D ( 'NONE', #16, #155, #100 ) ;
#212 = EDGE_LOOP ( 'NONE', ( #17, #180 ) ) ;
#213 = ADVANCED_FACE ( 'NONE', ( #190 ), #15, .F. ) ;
#214 = PERSON_AND_ORGANIZATION_ROLE ( 'design_owner' ) ;
#215 = COORDINATED_UNIVERSAL_TIME_OFFSET ( 1, 0, .AHEAD. ) ;
#216 = VERTEX_POINT ( 'NONE', #80 ) ;
#217 = APPROVAL_PERSON_ORGANIZATION ( #178, #27, #49 ) ;
#218 = CARTESIAN_POINT ( 'NONE',  ( -3.000000000000000444, 0.000000000000000000, 0.000000000000000000 ) ) ;
#219 = COORDINATED_UNIVERSAL_TIME_OFFSET ( 1, 0, .AHEAD. ) ;
#220 = DIRECTION ( 'NONE',  ( 1.000000000000000000, 0.000000000000000000, 0.000000000000000000 ) ) ;
#221 = CC_DESIGN_DATE_AND_TIME_ASSIGNMENT ( #88, #73, ( #7 ) ) ;
#222 = CC_DESIGN_APPROVAL ( #32, ( #7 ) ) ;
#223 = DIRECTION ( 'NONE',  ( 1.000000000000000000, 0.000000000000000000, -0.000000000000000000 ) ) ;
#224 = EDGE_CURVE ( 'NONE', #81, #234, #5, .T. ) ;
#225 = DIRECTION ( 'NONE',  ( -1.000000000000000000, 0.000000000000000000, 0.000000000000000000 ) ) ;
#226 = CARTESIAN_POINT ( 'NONE',  ( 1.600000000000000089, 1.959434878635765230E-16, 160.0000000000000000 ) ) ;
#227 = PRODUCT_DEFINITION_FORMATION_WITH_SPECIFIED_SOURCE ( 'LIBOVOLNÝ', '', #209, .NOT_KNOWN. ) ;
#228 = APPLICATION_CONTEXT ( 'configuration controlled 3d designs of mechanical parts and assemblies' ) ;
#229 = ORIENTED_EDGE ( 'NONE', *, *, #161, .T. ) ;
#230 = APPLICATION_PROTOCOL_DEFINITION ( 'international standard', 'config_control_design', 1994, #228 ) ;
#231 = ORIENTED_EDGE ( 'NONE', *, *, #184, .F. ) ;
#232 =( GEOMETRIC_REPRESENTATION_CONTEXT ( 3 ) GLOBAL_UNCERTAINTY_ASSIGNED_CONTEXT ( ( #117 ) ) GLOBAL_UNIT_ASSIGNED_CONTEXT ( ( #194, #193, #157 ) ) REPRESENTATION_CONTEXT ( 'NONE', 'WORKASPACE' ) );
#233 = PERSON_AND_ORGANIZATION_ROLE ( 'classification_officer' ) ;
#234 = VERTEX_POINT ( 'NONE', #122 ) ;
#235 = PRODUCT_DEFINITION_SHAPE ( 'NONE', 'NONE',  #7 ) ;
#236 = PERSON_AND_ORGANIZATION ( #63, #245 ) ;
#237 = CARTESIAN_POINT ( 'NONE',  ( 0.000000000000000000, 0.000000000000000000, 3.000000000000000000 ) ) ;
#238 = AXIS2_PLACEMENT_3D ( 'NONE', #36, #249, #210 ) ;
#239 = APPROVAL_ROLE ( '' ) ;
#240 = DIRECTION ( 'NONE',  ( 0.000000000000000000, 0.000000000000000000, 1.000000000000000000 ) ) ;
#241 = CARTESIAN_POINT ( 'NONE',  ( 0.000000000000000000, 0.000000000000000000, 3.000000000000000000 ) ) ;
#242 = CIRCLE ( 'NONE', #78, 3.000000000000000444 ) ;
#243 = EDGE_LOOP ( 'NONE', ( #43, #6 ) ) ;
#244 = APPROVAL_STATUS ( 'not_yet_approved' ) ;
#245 = ORGANIZATION ( 'NEURÈENÝ', 'NEURÈENÝ', '' ) ;
#246 = VECTOR ( 'NONE', #10, 1000.000000000000000 ) ;
#247 = CC_DESIGN_PERSON_AND_ORGANIZATION_ASSIGNMENT ( #236, #233, ( #205 ) ) ;
#248 = DIRECTION ( 'NONE',  ( -0.000000000000000000, -0.000000000000000000, -1.000000000000000000 ) ) ;
#249 = DIRECTION ( 'NONE',  ( 0.000000000000000000, 0.000000000000000000, 1.000000000000000000 ) ) ;
#250 = EDGE_LOOP ( 'NONE', ( #125, #45, #191, #170 ) ) ;
#251 = ORIENTED_EDGE ( 'NONE', *, *, #224, .T. ) ;
#252 = DIRECTION ( 'NONE',  ( 0.000000000000000000, 0.000000000000000000, 1.000000000000000000 ) ) ;
#253 = ORIENTED_EDGE ( 'NONE', *, *, #161, .F. ) ;
#254 = APPROVAL ( #244, 'NEURÈENÝ' ) ;
#255 = AXIS2_PLACEMENT_3D ( 'NONE', #131, #91, #68 ) ;
ENDSEC;
END-ISO-10303-21;
