ISO-10303-21;
HEADER;
FILE_DESCRIPTION (( 'STEP AP203' ),
    '1' );
FILE_NAME ('5e0d.STEP',
    '2023-02-13T13:45:01',
    ( '' ),
    ( '' ),
    'SwSTEP 2.0',
    'SolidWorks 2019',
    '' );
FILE_SCHEMA (( 'CONFIG_CONTROL_DESIGN' ));
ENDSEC;

DATA;
#1 = APPROVAL_ROLE ( '' ) ;
#2 = DIRECTION ( 'NONE',  ( 1.000000000000000000, 0.000000000000000000, -0.000000000000000000 ) ) ;
#3 = ORIENTED_EDGE ( 'NONE', *, *, #28, .T. ) ;
#4 = ORIENTED_EDGE ( 'NONE', *, *, #28, .F. ) ;
#5 = PERSON_AND_ORGANIZATION_ROLE ( 'design_owner' ) ;
#6 = CARTESIAN_POINT ( 'NONE',  ( 0.000000000000000000, 0.000000000000000000, 6.500000000000000000 ) ) ;
#7 = DIRECTION ( 'NONE',  ( -0.000000000000000000, -0.000000000000000000, -1.000000000000000000 ) ) ;
#8 = DIRECTION ( 'NONE',  ( -1.000000000000000000, 0.000000000000000000, 0.000000000000000000 ) ) ;
#9 = CARTESIAN_POINT ( 'NONE',  ( 0.000000000000000000, 0.000000000000000000, 6.500000000000000000 ) ) ;
#10 = DIRECTION ( 'NONE',  ( 0.000000000000000000, 0.000000000000000000, 1.000000000000000000 ) ) ;
#11 = PLANE ( 'NONE',  #86 ) ;
#12 = DATE_AND_TIME ( #70, #124 ) ;
#13 = CC_DESIGN_PERSON_AND_ORGANIZATION_ASSIGNMENT ( #147, #5, ( #235 ) ) ;
#14 = CALENDAR_DATE ( 2023, 13, 2 ) ;
#15 =( NAMED_UNIT ( * ) PLANE_ANGLE_UNIT ( ) SI_UNIT ( $, .RADIAN. ) );
#16 = FACE_BOUND ( 'NONE', #204, .T. ) ;
#17 = LOCAL_TIME ( 14, 45, 1.000000000000000000, #152 ) ;
#18 = DIRECTION ( 'NONE',  ( -1.000000000000000000, 0.000000000000000000, 0.000000000000000000 ) ) ;
#19 = SHAPE_DEFINITION_REPRESENTATION ( #182, #245 ) ;
#20 = ORIENTED_EDGE ( 'NONE', *, *, #219, .T. ) ;
#21 = ORIENTED_EDGE ( 'NONE', *, *, #151, .F. ) ;
#22 = AXIS2_PLACEMENT_3D ( 'NONE', #6, #105, #68 ) ;
#23 = DIRECTION ( 'NONE',  ( -0.000000000000000000, -0.000000000000000000, -1.000000000000000000 ) ) ;
#24 = ADVANCED_FACE ( 'NONE', ( #51 ), #101, .T. ) ;
#25 = VERTEX_POINT ( 'NONE', #157 ) ;
#26 = FACE_OUTER_BOUND ( 'NONE', #189, .T. ) ;
#27 = LOCAL_TIME ( 14, 45, 1.000000000000000000, #81 ) ;
#28 = EDGE_CURVE ( 'NONE', #63, #76, #78, .T. ) ;
#29 = DIRECTION ( 'NONE',  ( 0.000000000000000000, 0.000000000000000000, 1.000000000000000000 ) ) ;
#30 = CARTESIAN_POINT ( 'NONE',  ( 0.000000000000000000, 0.000000000000000000, 630.0000000000000000 ) ) ;
#31 = ADVANCED_FACE ( 'NONE', ( #26 ), #163, .T. ) ;
#32 = CARTESIAN_POINT ( 'NONE',  ( 0.000000000000000000, 0.000000000000000000, 6.500000000000000000 ) ) ;
#33 = COORDINATED_UNIVERSAL_TIME_OFFSET ( 1, 0, .AHEAD. ) ;
#34 = APPLICATION_CONTEXT ( 'configuration controlled 3d designs of mechanical parts and assemblies' ) ;
#35 = EDGE_CURVE ( 'NONE', #141, #25, #127, .T. ) ;
#36 = AXIS2_PLACEMENT_3D ( 'NONE', #231, #97, #234 ) ;
#37 = FACE_OUTER_BOUND ( 'NONE', #194, .T. ) ;
#38 = ORIENTED_EDGE ( 'NONE', *, *, #45, .T. ) ;
#39 = VERTEX_POINT ( 'NONE', #103 ) ;
#40 = EDGE_CURVE ( 'NONE', #57, #141, #132, .T. ) ;
#41 = ORIENTED_EDGE ( 'NONE', *, *, #69, .T. ) ;
#42 = APPLICATION_PROTOCOL_DEFINITION ( 'international standard', 'config_control_design', 1994, #34 ) ;
#43 = CYLINDRICAL_SURFACE ( 'NONE', #154, 7.000000000000000000 ) ;
#44 = APPROVAL_STATUS ( 'not_yet_approved' ) ;
#45 = EDGE_CURVE ( 'NONE', #98, #100, #193, .T. ) ;
#46 = PERSON_AND_ORGANIZATION ( #196, #188 ) ;
#47 = DATE_TIME_ROLE ( 'creation_date' ) ;
#48 = AXIS2_PLACEMENT_3D ( 'NONE', #150, #213, #106 ) ;
#49 = DATE_TIME_ROLE ( 'classification_date' ) ;
#50 = DIRECTION ( 'NONE',  ( 0.000000000000000000, 0.000000000000000000, 1.000000000000000000 ) ) ;
#51 = FACE_OUTER_BOUND ( 'NONE', #121, .T. ) ;
#52 = PLANE ( 'NONE',  #177 ) ;
#53 = CIRCLE ( 'NONE', #139, 7.000000000000000000 ) ;
#54 = LOCAL_TIME ( 14, 45, 1.000000000000000000, #92 ) ;
#55 = EDGE_LOOP ( 'NONE', ( #61, #102, #79, #175 ) ) ;
#56 = CARTESIAN_POINT ( 'NONE',  ( -4.500000000000000888, 0.000000000000000000, 630.0000000000000000 ) ) ;
#57 = VERTEX_POINT ( 'NONE', #183 ) ;
#58 = PERSON_AND_ORGANIZATION ( #196, #188 ) ;
#59 = ADVANCED_FACE ( 'NONE', ( #215 ), #88, .T. ) ;
#60 = DIRECTION ( 'NONE',  ( -0.000000000000000000, -0.000000000000000000, -1.000000000000000000 ) ) ;
#61 = ORIENTED_EDGE ( 'NONE', *, *, #40, .F. ) ;
#62 = DIRECTION ( 'NONE',  ( 0.000000000000000000, 0.000000000000000000, 1.000000000000000000 ) ) ;
#63 = VERTEX_POINT ( 'NONE', #148 ) ;
#64 = SECURITY_CLASSIFICATION ( '', '', #252 ) ;
#65 = MECHANICAL_CONTEXT ( 'NONE', #153, 'mechanical' ) ;
#66 = CARTESIAN_POINT ( 'NONE',  ( 0.000000000000000000, 0.000000000000000000, 6.500000000000000000 ) ) ;
#67 = LOCAL_TIME ( 14, 45, 1.000000000000000000, #169 ) ;
#68 = DIRECTION ( 'NONE',  ( 1.000000000000000000, 0.000000000000000000, 0.000000000000000000 ) ) ;
#69 = EDGE_CURVE ( 'NONE', #76, #100, #211, .T. ) ;
#70 = CALENDAR_DATE ( 2023, 13, 2 ) ;
#71 =( NAMED_UNIT ( * ) SI_UNIT ( $, .STERADIAN. ) SOLID_ANGLE_UNIT ( ) );
#72 = AXIS2_PLACEMENT_3D ( 'NONE', #230, #144, #131 ) ;
#73 = CARTESIAN_POINT ( 'NONE',  ( 0.000000000000000000, 0.000000000000000000, 630.0000000000000000 ) ) ;
#74 = PERSON_AND_ORGANIZATION ( #196, #188 ) ;
#75 = CALENDAR_DATE ( 2023, 13, 2 ) ;
#76 = VERTEX_POINT ( 'NONE', #165 ) ;
#77 = FACE_OUTER_BOUND ( 'NONE', #192, .T. ) ;
#78 = CIRCLE ( 'NONE', #36, 4.500000000000000888 ) ;
#79 = ORIENTED_EDGE ( 'NONE', *, *, #151, .T. ) ;
#80 = ORIENTED_EDGE ( 'NONE', *, *, #191, .F. ) ;
#81 = COORDINATED_UNIVERSAL_TIME_OFFSET ( 1, 0, .AHEAD. ) ;
#82 = ORIENTED_EDGE ( 'NONE', *, *, #45, .F. ) ;
#83 = APPLICATION_PROTOCOL_DEFINITION ( 'international standard', 'config_control_design', 1994, #153 ) ;
#84 = APPROVAL ( #44, 'NEURÈENÝ' ) ;
#85 = EDGE_LOOP ( 'NONE', ( #122, #176 ) ) ;
#86 = AXIS2_PLACEMENT_3D ( 'NONE', #248, #111, #202 ) ;
#87 = DIRECTION ( 'NONE',  ( 0.000000000000000000, 0.000000000000000000, 1.000000000000000000 ) ) ;
#88 = CYLINDRICAL_SURFACE ( 'NONE', #95, 4.500000000000000888 ) ;
#89 = DIRECTION ( 'NONE',  ( -1.000000000000000000, 0.000000000000000000, 0.000000000000000000 ) ) ;
#90 = ADVANCED_FACE ( 'NONE', ( #216 ), #43, .T. ) ;
#91 = CARTESIAN_POINT ( 'NONE',  ( 4.500000000000000888, 5.510910596163088569E-16, 630.0000000000000000 ) ) ;
#92 = COORDINATED_UNIVERSAL_TIME_OFFSET ( 1, 0, .AHEAD. ) ;
#93 = DIRECTION ( 'NONE',  ( 1.000000000000000000, 0.000000000000000000, 0.000000000000000000 ) ) ;
#94 = CC_DESIGN_PERSON_AND_ORGANIZATION_ASSIGNMENT ( #137, #203, ( #64 ) ) ;
#95 = AXIS2_PLACEMENT_3D ( 'NONE', #126, #128, #8 ) ;
#96 = FACE_OUTER_BOUND ( 'NONE', #85, .T. ) ;
#97 = DIRECTION ( 'NONE',  ( 0.000000000000000000, 0.000000000000000000, 1.000000000000000000 ) ) ;
#98 = VERTEX_POINT ( 'NONE', #241 ) ;
#99 = DIRECTION ( 'NONE',  ( 0.000000000000000000, 0.000000000000000000, 1.000000000000000000 ) ) ;
#100 = VERTEX_POINT ( 'NONE', #236 ) ;
#101 = CYLINDRICAL_SURFACE ( 'NONE', #185, 7.000000000000000000 ) ;
#102 = ORIENTED_EDGE ( 'NONE', *, *, #186, .T. ) ;
#103 = CARTESIAN_POINT ( 'NONE',  ( 7.000000000000000000, 8.572527594031471218E-16, 0.000000000000000000 ) ) ;
#104 = APPROVAL_PERSON_ORGANIZATION ( #46, #84, #184 ) ;
#105 = DIRECTION ( 'NONE',  ( 0.000000000000000000, 0.000000000000000000, 1.000000000000000000 ) ) ;
#106 = DIRECTION ( 'NONE',  ( 1.000000000000000000, 0.000000000000000000, 0.000000000000000000 ) ) ;
#107 = DIRECTION ( 'NONE',  ( -0.000000000000000000, -0.000000000000000000, -1.000000000000000000 ) ) ;
#108 = AXIS2_PLACEMENT_3D ( 'NONE', #30, #107, #210 ) ;
#109 = CC_DESIGN_SECURITY_CLASSIFICATION ( #64, ( #140 ) ) ;
#110 = EDGE_CURVE ( 'NONE', #141, #57, #249, .T. ) ;
#111 = DIRECTION ( 'NONE',  ( 0.000000000000000000, 0.000000000000000000, 1.000000000000000000 ) ) ;
#112 =( LENGTH_UNIT ( ) NAMED_UNIT ( * ) SI_UNIT ( .MILLI., .METRE. ) );
#113 = APPROVAL_STATUS ( 'not_yet_approved' ) ;
#114 = PRODUCT_RELATED_PRODUCT_CATEGORY ( 'detail', '', ( #235 ) ) ;
#115 = APPROVAL_DATE_TIME ( #221, #201 ) ;
#116 = AXIS2_PLACEMENT_3D ( 'NONE', #73, #10, #130 ) ;
#117 = CC_DESIGN_APPROVAL ( #201, ( #140 ) ) ;
#118 = DIRECTION ( 'NONE',  ( 1.000000000000000000, 0.000000000000000000, -0.000000000000000000 ) ) ;
#119 = DIRECTION ( 'NONE',  ( -0.000000000000000000, -0.000000000000000000, -1.000000000000000000 ) ) ;
#120 = EDGE_CURVE ( 'NONE', #76, #63, #167, .T. ) ;
#121 = EDGE_LOOP ( 'NONE', ( #125, #190, #228, #20 ) ) ;
#122 = ORIENTED_EDGE ( 'NONE', *, *, #110, .T. ) ;
#123 = VECTOR ( 'NONE', #212, 1000.000000000000000 ) ;
#124 = LOCAL_TIME ( 14, 45, 1.000000000000000000, #33 ) ;
#125 = ORIENTED_EDGE ( 'NONE', *, *, #186, .F. ) ;
#126 = CARTESIAN_POINT ( 'NONE',  ( 0.000000000000000000, 0.000000000000000000, 630.0000000000000000 ) ) ;
#127 = LINE ( 'NONE', #181, #239 ) ;
#128 = DIRECTION ( 'NONE',  ( -0.000000000000000000, -0.000000000000000000, -1.000000000000000000 ) ) ;
#129 = DIRECTION ( 'NONE',  ( 1.000000000000000000, 0.000000000000000000, 0.000000000000000000 ) ) ;
#130 = DIRECTION ( 'NONE',  ( 1.000000000000000000, 0.000000000000000000, 0.000000000000000000 ) ) ;
#131 = DIRECTION ( 'NONE',  ( 1.000000000000000000, 0.000000000000000000, 0.000000000000000000 ) ) ;
#132 = CIRCLE ( 'NONE', #22, 7.000000000000000000 ) ;
#133 =( GEOMETRIC_REPRESENTATION_CONTEXT ( 3 ) GLOBAL_UNCERTAINTY_ASSIGNED_CONTEXT ( ( #172 ) ) GLOBAL_UNIT_ASSIGNED_CONTEXT ( ( #112, #15, #71 ) ) REPRESENTATION_CONTEXT ( 'NONE', 'WORKASPACE' ) );
#134 = CC_DESIGN_PERSON_AND_ORGANIZATION_ASSIGNMENT ( #136, #223, ( #140 ) ) ;
#135 = DIRECTION ( 'NONE',  ( 0.000000000000000000, 0.000000000000000000, 1.000000000000000000 ) ) ;
#136 = PERSON_AND_ORGANIZATION ( #196, #188 ) ;
#137 = PERSON_AND_ORGANIZATION ( #196, #188 ) ;
#138 = CARTESIAN_POINT ( 'NONE',  ( 0.000000000000000000, 0.000000000000000000, 6.500000000000000000 ) ) ;
#139 = AXIS2_PLACEMENT_3D ( 'NONE', #244, #135, #93 ) ;
#140 = PRODUCT_DEFINITION_FORMATION_WITH_SPECIFIED_SOURCE ( 'LIBOVOLNÝ', '', #235, .NOT_KNOWN. ) ;
#141 = VERTEX_POINT ( 'NONE', #166 ) ;
#142 = CARTESIAN_POINT ( 'NONE',  ( 0.000000000000000000, 0.000000000000000000, 630.0000000000000000 ) ) ;
#143 = ORIENTED_EDGE ( 'NONE', *, *, #246, .T. ) ;
#144 = DIRECTION ( 'NONE',  ( 0.000000000000000000, 0.000000000000000000, 1.000000000000000000 ) ) ;
#145 = CC_DESIGN_DATE_AND_TIME_ASSIGNMENT ( #217, #47, ( #171 ) ) ;
#146 = AXIS2_PLACEMENT_3D ( 'NONE', #159, #62, #255 ) ;
#147 = PERSON_AND_ORGANIZATION ( #196, #188 ) ;
#148 = CARTESIAN_POINT ( 'NONE',  ( -4.500000000000000888, 0.000000000000000000, 630.0000000000000000 ) ) ;
#149 = DIRECTION ( 'NONE',  ( -0.000000000000000000, -0.000000000000000000, -1.000000000000000000 ) ) ;
#150 = CARTESIAN_POINT ( 'NONE',  ( 0.000000000000000000, 0.000000000000000000, 0.000000000000000000 ) ) ;
#151 = EDGE_CURVE ( 'NONE', #39, #25, #53, .T. ) ;
#152 = COORDINATED_UNIVERSAL_TIME_OFFSET ( 1, 0, .AHEAD. ) ;
#153 = APPLICATION_CONTEXT ( 'configuration controlled 3d designs of mechanical parts and assemblies' ) ;
#154 = AXIS2_PLACEMENT_3D ( 'NONE', #32, #7, #89 ) ;
#155 = PERSON_AND_ORGANIZATION_ROLE ( 'creator' ) ;
#156 = CC_DESIGN_APPROVAL ( #227, ( #64 ) ) ;
#157 = CARTESIAN_POINT ( 'NONE',  ( -7.000000000000000000, 0.000000000000000000, 0.000000000000000000 ) ) ;
#158 = ADVANCED_FACE ( 'NONE', ( #37 ), #11, .F. ) ;
#159 = CARTESIAN_POINT ( 'NONE',  ( 0.000000000000000000, 0.000000000000000000, 0.000000000000000000 ) ) ;
#160 = CIRCLE ( 'NONE', #72, 4.500000000000000888 ) ;
#161 = ORIENTED_EDGE ( 'NONE', *, *, #219, .F. ) ;
#162 = ADVANCED_FACE ( 'NONE', ( #16, #96 ), #200, .T. ) ;
#163 = CYLINDRICAL_SURFACE ( 'NONE', #108, 4.500000000000000888 ) ;
#164 = CARTESIAN_POINT ( 'NONE',  ( 0.000000000000000000, 0.000000000000000000, 6.500000000000000000 ) ) ;
#165 = CARTESIAN_POINT ( 'NONE',  ( 4.500000000000000888, 5.510910596163088569E-16, 630.0000000000000000 ) ) ;
#166 = CARTESIAN_POINT ( 'NONE',  ( -7.000000000000000000, 0.000000000000000000, 6.500000000000000000 ) ) ;
#167 = CIRCLE ( 'NONE', #116, 4.500000000000000888 ) ;
#168 = PERSON_AND_ORGANIZATION ( #196, #188 ) ;
#169 = COORDINATED_UNIVERSAL_TIME_OFFSET ( 1, 0, .AHEAD. ) ;
#170 = AXIS2_PLACEMENT_3D ( 'NONE', #164, #87, #129 ) ;
#171 = PRODUCT_DEFINITION ( 'NEZNÁMÝ', '', #140, #224 ) ;
#172 = UNCERTAINTY_MEASURE_WITH_UNIT (LENGTH_MEASURE( 1.000000000000000082E-05 ), #112, 'distance_accuracy_value', 'NONE');
#173 = DATE_AND_TIME ( #253, #54 ) ;
#174 = LINE ( 'NONE', #226, #240 ) ;
#175 = ORIENTED_EDGE ( 'NONE', *, *, #35, .F. ) ;
#176 = ORIENTED_EDGE ( 'NONE', *, *, #40, .T. ) ;
#177 = AXIS2_PLACEMENT_3D ( 'NONE', #142, #99, #2 ) ;
#178 = ORIENTED_EDGE ( 'NONE', *, *, #120, .F. ) ;
#179 = MANIFOLD_SOLID_BREP ( 'Pøidat vysunutím3', #198 ) ;
#180 = CC_DESIGN_APPROVAL ( #84, ( #171 ) ) ;
#181 = CARTESIAN_POINT ( 'NONE',  ( -7.000000000000000000, 0.000000000000000000, 6.500000000000000000 ) ) ;
#182 = PRODUCT_DEFINITION_SHAPE ( 'NONE', 'NONE',  #171 ) ;
#183 = CARTESIAN_POINT ( 'NONE',  ( 7.000000000000000000, 8.572527594031471218E-16, 6.500000000000000000 ) ) ;
#184 = APPROVAL_ROLE ( '' ) ;
#185 = AXIS2_PLACEMENT_3D ( 'NONE', #138, #119, #18 ) ;
#186 = EDGE_CURVE ( 'NONE', #57, #39, #174, .T. ) ;
#187 = APPROVAL_ROLE ( '' ) ;
#188 = ORGANIZATION ( 'NEURÈENÝ', 'NEURÈENÝ', '' ) ;
#189 = EDGE_LOOP ( 'NONE', ( #195, #4, #229, #38 ) ) ;
#190 = ORIENTED_EDGE ( 'NONE', *, *, #110, .F. ) ;
#191 = EDGE_CURVE ( 'NONE', #63, #98, #207, .T. ) ;
#192 = EDGE_LOOP ( 'NONE', ( #3, #232 ) ) ;
#193 = CIRCLE ( 'NONE', #205, 4.500000000000000888 ) ;
#194 = EDGE_LOOP ( 'NONE', ( #161, #21 ) ) ;
#195 = ORIENTED_EDGE ( 'NONE', *, *, #69, .F. ) ;
#196 = PERSON ( 'NEURÈENÝ', 'NEURÈENÝ', 'NEURÈENÝ', ('NEURÈENÝ'), ('NEURÈENÝ'), ('NEURÈENÝ') ) ;
#197 = CC_DESIGN_PERSON_AND_ORGANIZATION_ASSIGNMENT ( #74, #155, ( #140 ) ) ;
#198 = CLOSED_SHELL ( 'NONE', ( #59, #90, #24, #162, #158, #31, #209 ) ) ;
#199 = AXIS2_PLACEMENT_3D ( 'NONE', #9, #50, #118 ) ;
#200 = PLANE ( 'NONE',  #199 ) ;
#201 = APPROVAL ( #208, 'NEURÈENÝ' ) ;
#202 = DIRECTION ( 'NONE',  ( 1.000000000000000000, 0.000000000000000000, -0.000000000000000000 ) ) ;
#203 = PERSON_AND_ORGANIZATION_ROLE ( 'classification_officer' ) ;
#204 = EDGE_LOOP ( 'NONE', ( #82, #206 ) ) ;
#205 = AXIS2_PLACEMENT_3D ( 'NONE', #66, #29, #237 ) ;
#206 = ORIENTED_EDGE ( 'NONE', *, *, #246, .F. ) ;
#207 = LINE ( 'NONE', #56, #243 ) ;
#208 = APPROVAL_STATUS ( 'not_yet_approved' ) ;
#209 = ADVANCED_FACE ( 'NONE', ( #77 ), #52, .T. ) ;
#210 = DIRECTION ( 'NONE',  ( -1.000000000000000000, 0.000000000000000000, 0.000000000000000000 ) ) ;
#211 = LINE ( 'NONE', #91, #123 ) ;
#212 = DIRECTION ( 'NONE',  ( -0.000000000000000000, -0.000000000000000000, -1.000000000000000000 ) ) ;
#213 = DIRECTION ( 'NONE',  ( 0.000000000000000000, 0.000000000000000000, 1.000000000000000000 ) ) ;
#214 = CC_DESIGN_DATE_AND_TIME_ASSIGNMENT ( #173, #49, ( #64 ) ) ;
#215 = FACE_OUTER_BOUND ( 'NONE', #254, .T. ) ;
#216 = FACE_OUTER_BOUND ( 'NONE', #55, .T. ) ;
#217 = DATE_AND_TIME ( #14, #17 ) ;
#218 = APPROVAL_PERSON_ORGANIZATION ( #251, #227, #187 ) ;
#219 = EDGE_CURVE ( 'NONE', #25, #39, #233, .T. ) ;
#220 = APPROVAL_PERSON_ORGANIZATION ( #58, #201, #1 ) ;
#221 = DATE_AND_TIME ( #250, #27 ) ;
#222 = APPROVAL_DATE_TIME ( #225, #227 ) ;
#223 = PERSON_AND_ORGANIZATION_ROLE ( 'design_supplier' ) ;
#224 = DESIGN_CONTEXT ( 'detailed design', #34, 'design' ) ;
#225 = DATE_AND_TIME ( #75, #67 ) ;
#226 = CARTESIAN_POINT ( 'NONE',  ( 7.000000000000000000, 8.572527594031471218E-16, 6.500000000000000000 ) ) ;
#227 = APPROVAL ( #113, 'NEURÈENÝ' ) ;
#228 = ORIENTED_EDGE ( 'NONE', *, *, #35, .T. ) ;
#229 = ORIENTED_EDGE ( 'NONE', *, *, #191, .T. ) ;
#230 = CARTESIAN_POINT ( 'NONE',  ( 0.000000000000000000, 0.000000000000000000, 6.500000000000000000 ) ) ;
#231 = CARTESIAN_POINT ( 'NONE',  ( 0.000000000000000000, 0.000000000000000000, 630.0000000000000000 ) ) ;
#232 = ORIENTED_EDGE ( 'NONE', *, *, #120, .T. ) ;
#233 = CIRCLE ( 'NONE', #146, 7.000000000000000000 ) ;
#234 = DIRECTION ( 'NONE',  ( 1.000000000000000000, 0.000000000000000000, 0.000000000000000000 ) ) ;
#235 = PRODUCT ( '5e0d', '5e0d', '', ( #65 ) ) ;
#236 = CARTESIAN_POINT ( 'NONE',  ( 4.500000000000000888, 5.510910596163088569E-16, 6.500000000000000000 ) ) ;
#237 = DIRECTION ( 'NONE',  ( 1.000000000000000000, 0.000000000000000000, 0.000000000000000000 ) ) ;
#238 = CC_DESIGN_PERSON_AND_ORGANIZATION_ASSIGNMENT ( #168, #242, ( #171 ) ) ;
#239 = VECTOR ( 'NONE', #149, 1000.000000000000000 ) ;
#240 = VECTOR ( 'NONE', #60, 1000.000000000000000 ) ;
#241 = CARTESIAN_POINT ( 'NONE',  ( -4.500000000000000888, 0.000000000000000000, 6.500000000000000000 ) ) ;
#242 = PERSON_AND_ORGANIZATION_ROLE ( 'creator' ) ;
#243 = VECTOR ( 'NONE', #23, 1000.000000000000000 ) ;
#244 = CARTESIAN_POINT ( 'NONE',  ( 0.000000000000000000, 0.000000000000000000, 0.000000000000000000 ) ) ;
#245 = ADVANCED_BREP_SHAPE_REPRESENTATION ( '5e0d', ( #179, #48 ), #133 ) ;
#246 = EDGE_CURVE ( 'NONE', #100, #98, #160, .T. ) ;
#247 = APPROVAL_DATE_TIME ( #12, #84 ) ;
#248 = CARTESIAN_POINT ( 'NONE',  ( 0.000000000000000000, 0.000000000000000000, 0.000000000000000000 ) ) ;
#249 = CIRCLE ( 'NONE', #170, 7.000000000000000000 ) ;
#250 = CALENDAR_DATE ( 2023, 13, 2 ) ;
#251 = PERSON_AND_ORGANIZATION ( #196, #188 ) ;
#252 = SECURITY_CLASSIFICATION_LEVEL ( 'unclassified' ) ;
#253 = CALENDAR_DATE ( 2023, 13, 2 ) ;
#254 = EDGE_LOOP ( 'NONE', ( #178, #41, #143, #80 ) ) ;
#255 = DIRECTION ( 'NONE',  ( 1.000000000000000000, 0.000000000000000000, 0.000000000000000000 ) ) ;
ENDSEC;
END-ISO-10303-21;
