ISO-10303-21;
HEADER;
FILE_DESCRIPTION (( 'STEP AP203' ),
    '1' );
FILE_NAME ('fad4.STEP',
    '2023-02-13T08:40:58',
    ( '' ),
    ( '' ),
    'SwSTEP 2.0',
    'SolidWorks 2019',
    '' );
FILE_SCHEMA (( 'CONFIG_CONTROL_DESIGN' ));
ENDSEC;

DATA;
#1 = DIRECTION ( 'NONE',  ( 1.000000000000000000, 0.000000000000000000, -0.000000000000000000 ) ) ;
#2 = ORGANIZATION ( 'NEURÈENÝ', 'NEURÈENÝ', '' ) ;
#3 = AXIS2_PLACEMENT_3D ( 'NONE', #57, #155, #120 ) ;
#4 =( NAMED_UNIT ( * ) SI_UNIT ( $, .STERADIAN. ) SOLID_ANGLE_UNIT ( ) );
#5 = CARTESIAN_POINT ( 'NONE',  ( 10.00000000000000000, 1.224646799147353256E-15, 315.0000000000000000 ) ) ;
#6 = CARTESIAN_POINT ( 'NONE',  ( -14.00000000000000000, 0.000000000000000000, 7.000000000000000000 ) ) ;
#7 = ORIENTED_EDGE ( 'NONE', *, *, #45, .F. ) ;
#8 = DIRECTION ( 'NONE',  ( 0.000000000000000000, 0.000000000000000000, 1.000000000000000000 ) ) ;
#9 = PRODUCT_DEFINITION_SHAPE ( 'NONE', 'NONE',  #154 ) ;
#10 = CARTESIAN_POINT ( 'NONE',  ( 14.00000000000000000, 1.714505518806294638E-15, 7.000000000000000000 ) ) ;
#11 = CARTESIAN_POINT ( 'NONE',  ( 0.000000000000000000, 0.000000000000000000, 0.000000000000000000 ) ) ;
#12 = APPROVAL_DATE_TIME ( #70, #144 ) ;
#13 = EDGE_CURVE ( 'NONE', #133, #214, #195, .T. ) ;
#14 = DIRECTION ( 'NONE',  ( -0.000000000000000000, -0.000000000000000000, -1.000000000000000000 ) ) ;
#15 = APPROVAL_PERSON_ORGANIZATION ( #52, #144, #248 ) ;
#16 = DIRECTION ( 'NONE',  ( 0.000000000000000000, 0.000000000000000000, 1.000000000000000000 ) ) ;
#17 = AXIS2_PLACEMENT_3D ( 'NONE', #11, #240, #129 ) ;
#18 = DATE_TIME_ROLE ( 'classification_date' ) ;
#19 = FACE_OUTER_BOUND ( 'NONE', #60, .T. ) ;
#20 = CIRCLE ( 'NONE', #72, 10.00000000000000000 ) ;
#21 = DIRECTION ( 'NONE',  ( -1.000000000000000000, 0.000000000000000000, 0.000000000000000000 ) ) ;
#22 = PERSON_AND_ORGANIZATION_ROLE ( 'creator' ) ;
#23 = FACE_OUTER_BOUND ( 'NONE', #179, .T. ) ;
#24 = APPROVAL_DATE_TIME ( #99, #110 ) ;
#25 = VERTEX_POINT ( 'NONE', #5 ) ;
#26 = LOCAL_TIME ( 9, 40, 58.00000000000000000, #215 ) ;
#27 = CYLINDRICAL_SURFACE ( 'NONE', #220, 10.00000000000000000 ) ;
#28 = DIRECTION ( 'NONE',  ( -1.000000000000000000, 0.000000000000000000, 0.000000000000000000 ) ) ;
#29 = PRODUCT_RELATED_PRODUCT_CATEGORY ( 'detail', '', ( #162 ) ) ;
#30 = DIRECTION ( 'NONE',  ( 0.000000000000000000, 0.000000000000000000, 1.000000000000000000 ) ) ;
#31 = PERSON_AND_ORGANIZATION ( #187, #2 ) ;
#32 = EDGE_CURVE ( 'NONE', #42, #136, #228, .T. ) ;
#33 = DIRECTION ( 'NONE',  ( 1.000000000000000000, 0.000000000000000000, -0.000000000000000000 ) ) ;
#34 = CALENDAR_DATE ( 2023, 13, 2 ) ;
#35 = FACE_OUTER_BOUND ( 'NONE', #63, .T. ) ;
#36 = ORIENTED_EDGE ( 'NONE', *, *, #131, .T. ) ;
#37 = ORIENTED_EDGE ( 'NONE', *, *, #91, .T. ) ;
#38 = CARTESIAN_POINT ( 'NONE',  ( 0.000000000000000000, 0.000000000000000000, 7.000000000000000000 ) ) ;
#39 = DIRECTION ( 'NONE',  ( -0.000000000000000000, -0.000000000000000000, -1.000000000000000000 ) ) ;
#40 = ORIENTED_EDGE ( 'NONE', *, *, #229, .F. ) ;
#41 = ADVANCED_FACE ( 'NONE', ( #134 ), #80, .T. ) ;
#42 = VERTEX_POINT ( 'NONE', #44 ) ;
#43 = CARTESIAN_POINT ( 'NONE',  ( 10.00000000000000000, 1.224646799147353256E-15, 315.0000000000000000 ) ) ;
#44 = CARTESIAN_POINT ( 'NONE',  ( 14.00000000000000000, 1.714505518806294638E-15, 0.000000000000000000 ) ) ;
#45 = EDGE_CURVE ( 'NONE', #133, #25, #147, .T. ) ;
#46 = AXIS2_PLACEMENT_3D ( 'NONE', #149, #222, #183 ) ;
#47 = COORDINATED_UNIVERSAL_TIME_OFFSET ( 1, 0, .AHEAD. ) ;
#48 = AXIS2_PLACEMENT_3D ( 'NONE', #212, #95, #83 ) ;
#49 = PERSON_AND_ORGANIZATION_ROLE ( 'creator' ) ;
#50 = DIRECTION ( 'NONE',  ( -1.000000000000000000, 0.000000000000000000, 0.000000000000000000 ) ) ;
#51 = AXIS2_PLACEMENT_3D ( 'NONE', #251, #246, #75 ) ;
#52 = PERSON_AND_ORGANIZATION ( #187, #2 ) ;
#53 = APPLICATION_CONTEXT ( 'configuration controlled 3d designs of mechanical parts and assemblies' ) ;
#54 = PERSON_AND_ORGANIZATION ( #187, #2 ) ;
#55 = ADVANCED_FACE ( 'NONE', ( #19 ), #169, .T. ) ;
#56 = CARTESIAN_POINT ( 'NONE',  ( 14.00000000000000000, 1.714505518806294638E-15, 7.000000000000000000 ) ) ;
#57 = CARTESIAN_POINT ( 'NONE',  ( 0.000000000000000000, 0.000000000000000000, 7.000000000000000000 ) ) ;
#58 = PERSON_AND_ORGANIZATION ( #187, #2 ) ;
#59 = CARTESIAN_POINT ( 'NONE',  ( -10.00000000000000000, 0.000000000000000000, 7.000000000000000000 ) ) ;
#60 = EDGE_LOOP ( 'NONE', ( #224, #82, #253, #40 ) ) ;
#61 = CARTESIAN_POINT ( 'NONE',  ( 0.000000000000000000, 0.000000000000000000, 7.000000000000000000 ) ) ;
#62 = CALENDAR_DATE ( 2023, 13, 2 ) ;
#63 = EDGE_LOOP ( 'NONE', ( #234, #98, #185, #232 ) ) ;
#64 = DIRECTION ( 'NONE',  ( 1.000000000000000000, 0.000000000000000000, 0.000000000000000000 ) ) ;
#65 = LOCAL_TIME ( 9, 40, 58.00000000000000000, #47 ) ;
#66 = CARTESIAN_POINT ( 'NONE',  ( 0.000000000000000000, 0.000000000000000000, 315.0000000000000000 ) ) ;
#67 = APPROVAL_DATE_TIME ( #71, #127 ) ;
#68 = ORIENTED_EDGE ( 'NONE', *, *, #218, .T. ) ;
#69 = VECTOR ( 'NONE', #186, 1000.000000000000000 ) ;
#70 = DATE_AND_TIME ( #62, #160 ) ;
#71 = DATE_AND_TIME ( #213, #26 ) ;
#72 = AXIS2_PLACEMENT_3D ( 'NONE', #126, #235, #106 ) ;
#73 = CC_DESIGN_APPROVAL ( #144, ( #154 ) ) ;
#74 = ADVANCED_FACE ( 'NONE', ( #250, #117 ), #225, .T. ) ;
#75 = DIRECTION ( 'NONE',  ( 1.000000000000000000, 0.000000000000000000, 0.000000000000000000 ) ) ;
#76 = EDGE_CURVE ( 'NONE', #173, #214, #20, .T. ) ;
#77 = LINE ( 'NONE', #56, #69 ) ;
#78 = EDGE_LOOP ( 'NONE', ( #226, #139 ) ) ;
#79 = DATE_AND_TIME ( #119, #145 ) ;
#80 = PLANE ( 'NONE',  #153 ) ;
#81 = LINE ( 'NONE', #192, #166 ) ;
#82 = ORIENTED_EDGE ( 'NONE', *, *, #211, .T. ) ;
#83 = DIRECTION ( 'NONE',  ( 1.000000000000000000, 0.000000000000000000, 0.000000000000000000 ) ) ;
#84 = AXIS2_PLACEMENT_3D ( 'NONE', #152, #227, #64 ) ;
#85 = VERTEX_POINT ( 'NONE', #10 ) ;
#86 = SECURITY_CLASSIFICATION ( '', '', #244 ) ;
#87 = COORDINATED_UNIVERSAL_TIME_OFFSET ( 1, 0, .AHEAD. ) ;
#88 = CARTESIAN_POINT ( 'NONE',  ( -10.00000000000000000, 0.000000000000000000, 315.0000000000000000 ) ) ;
#89 = DIRECTION ( 'NONE',  ( 0.000000000000000000, 0.000000000000000000, 1.000000000000000000 ) ) ;
#90 = CYLINDRICAL_SURFACE ( 'NONE', #158, 10.00000000000000000 ) ;
#91 = EDGE_CURVE ( 'NONE', #25, #133, #216, .T. ) ;
#92 = APPLICATION_CONTEXT ( 'configuration controlled 3d designs of mechanical parts and assemblies' ) ;
#93 = AXIS2_PLACEMENT_3D ( 'NONE', #159, #30, #217 ) ;
#94 = ORIENTED_EDGE ( 'NONE', *, *, #204, .T. ) ;
#95 = DIRECTION ( 'NONE',  ( 0.000000000000000000, 0.000000000000000000, 1.000000000000000000 ) ) ;
#96 = ORIENTED_EDGE ( 'NONE', *, *, #118, .T. ) ;
#97 = DATE_AND_TIME ( #34, #65 ) ;
#98 = ORIENTED_EDGE ( 'NONE', *, *, #118, .F. ) ;
#99 = DATE_AND_TIME ( #180, #206 ) ;
#100 = CC_DESIGN_PERSON_AND_ORGANIZATION_ASSIGNMENT ( #115, #22, ( #242 ) ) ;
#101 = CC_DESIGN_APPROVAL ( #110, ( #242 ) ) ;
#102 = EDGE_LOOP ( 'NONE', ( #122, #36, #189, #171 ) ) ;
#103 = APPROVAL_STATUS ( 'not_yet_approved' ) ;
#104 =( NAMED_UNIT ( * ) PLANE_ANGLE_UNIT ( ) SI_UNIT ( $, .RADIAN. ) );
#105 = APPROVAL_STATUS ( 'not_yet_approved' ) ;
#106 = DIRECTION ( 'NONE',  ( 1.000000000000000000, 0.000000000000000000, 0.000000000000000000 ) ) ;
#107 = PERSON_AND_ORGANIZATION_ROLE ( 'classification_officer' ) ;
#108 = CARTESIAN_POINT ( 'NONE',  ( 0.000000000000000000, 0.000000000000000000, 315.0000000000000000 ) ) ;
#109 = ADVANCED_BREP_SHAPE_REPRESENTATION ( 'fad4', ( #142, #17 ), #182 ) ;
#110 = APPROVAL ( #156, 'NEURÈENÝ' ) ;
#111 = AXIS2_PLACEMENT_3D ( 'NONE', #114, #210, #21 ) ;
#112 = PERSON_AND_ORGANIZATION_ROLE ( 'design_owner' ) ;
#113 = ADVANCED_FACE ( 'NONE', ( #164 ), #90, .T. ) ;
#114 = CARTESIAN_POINT ( 'NONE',  ( 0.000000000000000000, 0.000000000000000000, 7.000000000000000000 ) ) ;
#115 = PERSON_AND_ORGANIZATION ( #187, #2 ) ;
#116 = CIRCLE ( 'NONE', #197, 14.00000000000000000 ) ;
#117 = FACE_OUTER_BOUND ( 'NONE', #194, .T. ) ;
#118 = EDGE_CURVE ( 'NONE', #223, #85, #249, .T. ) ;
#119 = CALENDAR_DATE ( 2023, 13, 2 ) ;
#120 = DIRECTION ( 'NONE',  ( 1.000000000000000000, 0.000000000000000000, 0.000000000000000000 ) ) ;
#121 = DATE_TIME_ROLE ( 'creation_date' ) ;
#122 = ORIENTED_EDGE ( 'NONE', *, *, #91, .F. ) ;
#123 = CC_DESIGN_PERSON_AND_ORGANIZATION_ASSIGNMENT ( #31, #107, ( #86 ) ) ;
#124 = CYLINDRICAL_SURFACE ( 'NONE', #238, 14.00000000000000000 ) ;
#125 = SHAPE_DEFINITION_REPRESENTATION ( #9, #109 ) ;
#126 = CARTESIAN_POINT ( 'NONE',  ( 0.000000000000000000, 0.000000000000000000, 7.000000000000000000 ) ) ;
#127 = APPROVAL ( #105, 'NEURÈENÝ' ) ;
#128 = APPLICATION_PROTOCOL_DEFINITION ( 'international standard', 'config_control_design', 1994, #53 ) ;
#129 = DIRECTION ( 'NONE',  ( 1.000000000000000000, 0.000000000000000000, 0.000000000000000000 ) ) ;
#130 = CC_DESIGN_SECURITY_CLASSIFICATION ( #86, ( #242 ) ) ;
#131 = EDGE_CURVE ( 'NONE', #25, #173, #209, .T. ) ;
#132 = APPROVAL_PERSON_ORGANIZATION ( #58, #127, #143 ) ;
#133 = VERTEX_POINT ( 'NONE', #88 ) ;
#134 = FACE_OUTER_BOUND ( 'NONE', #176, .T. ) ;
#135 = DIRECTION ( 'NONE',  ( 0.000000000000000000, 0.000000000000000000, 1.000000000000000000 ) ) ;
#136 = VERTEX_POINT ( 'NONE', #255 ) ;
#137 = ORIENTED_EDGE ( 'NONE', *, *, #131, .F. ) ;
#138 = DIRECTION ( 'NONE',  ( -0.000000000000000000, -0.000000000000000000, -1.000000000000000000 ) ) ;
#139 = ORIENTED_EDGE ( 'NONE', *, *, #32, .F. ) ;
#140 = CC_DESIGN_APPROVAL ( #127, ( #86 ) ) ;
#141 = UNCERTAINTY_MEASURE_WITH_UNIT (LENGTH_MEASURE( 1.000000000000000082E-05 ), #231, 'distance_accuracy_value', 'NONE');
#142 = MANIFOLD_SOLID_BREP ( 'Pøidat vysunutím3', #174 ) ;
#143 = APPROVAL_ROLE ( '' ) ;
#144 = APPROVAL ( #103, 'NEURÈENÝ' ) ;
#145 = LOCAL_TIME ( 9, 40, 58.00000000000000000, #87 ) ;
#146 = ORIENTED_EDGE ( 'NONE', *, *, #13, .T. ) ;
#147 = CIRCLE ( 'NONE', #84, 10.00000000000000000 ) ;
#148 = DIRECTION ( 'NONE',  ( -1.000000000000000000, 0.000000000000000000, 0.000000000000000000 ) ) ;
#149 = CARTESIAN_POINT ( 'NONE',  ( 0.000000000000000000, 0.000000000000000000, 7.000000000000000000 ) ) ;
#150 = DIRECTION ( 'NONE',  ( 1.000000000000000000, 0.000000000000000000, -0.000000000000000000 ) ) ;
#151 = APPROVAL_ROLE ( '' ) ;
#152 = CARTESIAN_POINT ( 'NONE',  ( 0.000000000000000000, 0.000000000000000000, 315.0000000000000000 ) ) ;
#153 = AXIS2_PLACEMENT_3D ( 'NONE', #208, #135, #150 ) ;
#154 = PRODUCT_DEFINITION ( 'NEZNÁMÝ', '', #242, #239 ) ;
#155 = DIRECTION ( 'NONE',  ( 0.000000000000000000, 0.000000000000000000, 1.000000000000000000 ) ) ;
#156 = APPROVAL_STATUS ( 'not_yet_approved' ) ;
#157 = CARTESIAN_POINT ( 'NONE',  ( -10.00000000000000000, 0.000000000000000000, 315.0000000000000000 ) ) ;
#158 = AXIS2_PLACEMENT_3D ( 'NONE', #108, #14, #50 ) ;
#159 = CARTESIAN_POINT ( 'NONE',  ( 0.000000000000000000, 0.000000000000000000, 315.0000000000000000 ) ) ;
#160 = LOCAL_TIME ( 9, 40, 58.00000000000000000, #188 ) ;
#161 = ADVANCED_FACE ( 'NONE', ( #23 ), #27, .T. ) ;
#162 = PRODUCT ( 'fad4', 'fad4', '', ( #168 ) ) ;
#163 = CARTESIAN_POINT ( 'NONE',  ( 0.000000000000000000, 0.000000000000000000, 0.000000000000000000 ) ) ;
#164 = FACE_OUTER_BOUND ( 'NONE', #102, .T. ) ;
#165 = PERSON_AND_ORGANIZATION_ROLE ( 'design_supplier' ) ;
#166 = VECTOR ( 'NONE', #39, 1000.000000000000000 ) ;
#167 = CC_DESIGN_DATE_AND_TIME_ASSIGNMENT ( #97, #18, ( #86 ) ) ;
#168 = MECHANICAL_CONTEXT ( 'NONE', #53, 'mechanical' ) ;
#169 = CYLINDRICAL_SURFACE ( 'NONE', #111, 14.00000000000000000 ) ;
#170 = DIRECTION ( 'NONE',  ( -0.000000000000000000, -0.000000000000000000, -1.000000000000000000 ) ) ;
#171 = ORIENTED_EDGE ( 'NONE', *, *, #13, .F. ) ;
#172 = ADVANCED_FACE ( 'NONE', ( #237 ), #181, .F. ) ;
#173 = VERTEX_POINT ( 'NONE', #230 ) ;
#174 = CLOSED_SHELL ( 'NONE', ( #113, #55, #202, #74, #172, #161, #41 ) ) ;
#175 = CIRCLE ( 'NONE', #3, 14.00000000000000000 ) ;
#176 = EDGE_LOOP ( 'NONE', ( #207, #37 ) ) ;
#177 = DIRECTION ( 'NONE',  ( -0.000000000000000000, -0.000000000000000000, -1.000000000000000000 ) ) ;
#178 = CC_DESIGN_PERSON_AND_ORGANIZATION_ASSIGNMENT ( #254, #165, ( #242 ) ) ;
#179 = EDGE_LOOP ( 'NONE', ( #137, #7, #146, #94 ) ) ;
#180 = CALENDAR_DATE ( 2023, 13, 2 ) ;
#181 = PLANE ( 'NONE',  #191 ) ;
#182 =( GEOMETRIC_REPRESENTATION_CONTEXT ( 3 ) GLOBAL_UNCERTAINTY_ASSIGNED_CONTEXT ( ( #141 ) ) GLOBAL_UNIT_ASSIGNED_CONTEXT ( ( #231, #104, #4 ) ) REPRESENTATION_CONTEXT ( 'NONE', 'WORKASPACE' ) );
#183 = DIRECTION ( 'NONE',  ( 1.000000000000000000, 0.000000000000000000, 0.000000000000000000 ) ) ;
#184 = CC_DESIGN_PERSON_AND_ORGANIZATION_ASSIGNMENT ( #54, #112, ( #162 ) ) ;
#185 = ORIENTED_EDGE ( 'NONE', *, *, #229, .T. ) ;
#186 = DIRECTION ( 'NONE',  ( -0.000000000000000000, -0.000000000000000000, -1.000000000000000000 ) ) ;
#187 = PERSON ( 'NEURÈENÝ', 'NEURÈENÝ', 'NEURÈENÝ', ('NEURÈENÝ'), ('NEURÈENÝ'), ('NEURÈENÝ') ) ;
#188 = COORDINATED_UNIVERSAL_TIME_OFFSET ( 1, 0, .AHEAD. ) ;
#189 = ORIENTED_EDGE ( 'NONE', *, *, #76, .T. ) ;
#190 = VECTOR ( 'NONE', #233, 1000.000000000000000 ) ;
#191 = AXIS2_PLACEMENT_3D ( 'NONE', #243, #8, #1 ) ;
#192 = CARTESIAN_POINT ( 'NONE',  ( -14.00000000000000000, 0.000000000000000000, 7.000000000000000000 ) ) ;
#193 = EDGE_CURVE ( 'NONE', #136, #42, #116, .T. ) ;
#194 = EDGE_LOOP ( 'NONE', ( #96, #68 ) ) ;
#195 = LINE ( 'NONE', #157, #236 ) ;
#196 = AXIS2_PLACEMENT_3D ( 'NONE', #61, #89, #33 ) ;
#197 = AXIS2_PLACEMENT_3D ( 'NONE', #163, #16, #245 ) ;
#198 = PERSON_AND_ORGANIZATION ( #187, #2 ) ;
#199 = EDGE_LOOP ( 'NONE', ( #201, #205 ) ) ;
#200 = CC_DESIGN_DATE_AND_TIME_ASSIGNMENT ( #79, #121, ( #154 ) ) ;
#201 = ORIENTED_EDGE ( 'NONE', *, *, #204, .F. ) ;
#202 = ADVANCED_FACE ( 'NONE', ( #35 ), #124, .T. ) ;
#203 = APPROVAL_PERSON_ORGANIZATION ( #198, #110, #151 ) ;
#204 = EDGE_CURVE ( 'NONE', #214, #173, #221, .T. ) ;
#205 = ORIENTED_EDGE ( 'NONE', *, *, #76, .F. ) ;
#206 = LOCAL_TIME ( 9, 40, 58.00000000000000000, #252 ) ;
#207 = ORIENTED_EDGE ( 'NONE', *, *, #45, .T. ) ;
#208 = CARTESIAN_POINT ( 'NONE',  ( 0.000000000000000000, 0.000000000000000000, 315.0000000000000000 ) ) ;
#209 = LINE ( 'NONE', #43, #190 ) ;
#210 = DIRECTION ( 'NONE',  ( -0.000000000000000000, -0.000000000000000000, -1.000000000000000000 ) ) ;
#211 = EDGE_CURVE ( 'NONE', #85, #42, #77, .T. ) ;
#212 = CARTESIAN_POINT ( 'NONE',  ( 0.000000000000000000, 0.000000000000000000, 0.000000000000000000 ) ) ;
#213 = CALENDAR_DATE ( 2023, 13, 2 ) ;
#214 = VERTEX_POINT ( 'NONE', #59 ) ;
#215 = COORDINATED_UNIVERSAL_TIME_OFFSET ( 1, 0, .AHEAD. ) ;
#216 = CIRCLE ( 'NONE', #93, 10.00000000000000000 ) ;
#217 = DIRECTION ( 'NONE',  ( 1.000000000000000000, 0.000000000000000000, 0.000000000000000000 ) ) ;
#218 = EDGE_CURVE ( 'NONE', #85, #223, #175, .T. ) ;
#219 = APPLICATION_PROTOCOL_DEFINITION ( 'international standard', 'config_control_design', 1994, #92 ) ;
#220 = AXIS2_PLACEMENT_3D ( 'NONE', #66, #138, #28 ) ;
#221 = CIRCLE ( 'NONE', #46, 10.00000000000000000 ) ;
#222 = DIRECTION ( 'NONE',  ( 0.000000000000000000, 0.000000000000000000, 1.000000000000000000 ) ) ;
#223 = VERTEX_POINT ( 'NONE', #6 ) ;
#224 = ORIENTED_EDGE ( 'NONE', *, *, #218, .F. ) ;
#225 = PLANE ( 'NONE',  #196 ) ;
#226 = ORIENTED_EDGE ( 'NONE', *, *, #193, .F. ) ;
#227 = DIRECTION ( 'NONE',  ( 0.000000000000000000, 0.000000000000000000, 1.000000000000000000 ) ) ;
#228 = CIRCLE ( 'NONE', #48, 14.00000000000000000 ) ;
#229 = EDGE_CURVE ( 'NONE', #223, #136, #81, .T. ) ;
#230 = CARTESIAN_POINT ( 'NONE',  ( 10.00000000000000000, 1.224646799147353256E-15, 7.000000000000000000 ) ) ;
#231 =( LENGTH_UNIT ( ) NAMED_UNIT ( * ) SI_UNIT ( .MILLI., .METRE. ) );
#232 = ORIENTED_EDGE ( 'NONE', *, *, #193, .T. ) ;
#233 = DIRECTION ( 'NONE',  ( -0.000000000000000000, -0.000000000000000000, -1.000000000000000000 ) ) ;
#234 = ORIENTED_EDGE ( 'NONE', *, *, #211, .F. ) ;
#235 = DIRECTION ( 'NONE',  ( 0.000000000000000000, 0.000000000000000000, 1.000000000000000000 ) ) ;
#236 = VECTOR ( 'NONE', #177, 1000.000000000000000 ) ;
#237 = FACE_OUTER_BOUND ( 'NONE', #78, .T. ) ;
#238 = AXIS2_PLACEMENT_3D ( 'NONE', #38, #170, #148 ) ;
#239 = DESIGN_CONTEXT ( 'detailed design', #92, 'design' ) ;
#240 = DIRECTION ( 'NONE',  ( 0.000000000000000000, 0.000000000000000000, 1.000000000000000000 ) ) ;
#241 = PERSON_AND_ORGANIZATION ( #187, #2 ) ;
#242 = PRODUCT_DEFINITION_FORMATION_WITH_SPECIFIED_SOURCE ( 'LIBOVOLNÝ', '', #162, .NOT_KNOWN. ) ;
#243 = CARTESIAN_POINT ( 'NONE',  ( 0.000000000000000000, 0.000000000000000000, 0.000000000000000000 ) ) ;
#244 = SECURITY_CLASSIFICATION_LEVEL ( 'unclassified' ) ;
#245 = DIRECTION ( 'NONE',  ( 1.000000000000000000, 0.000000000000000000, 0.000000000000000000 ) ) ;
#246 = DIRECTION ( 'NONE',  ( 0.000000000000000000, 0.000000000000000000, 1.000000000000000000 ) ) ;
#247 = CC_DESIGN_PERSON_AND_ORGANIZATION_ASSIGNMENT ( #241, #49, ( #154 ) ) ;
#248 = APPROVAL_ROLE ( '' ) ;
#249 = CIRCLE ( 'NONE', #51, 14.00000000000000000 ) ;
#250 = FACE_BOUND ( 'NONE', #199, .T. ) ;
#251 = CARTESIAN_POINT ( 'NONE',  ( 0.000000000000000000, 0.000000000000000000, 7.000000000000000000 ) ) ;
#252 = COORDINATED_UNIVERSAL_TIME_OFFSET ( 1, 0, .AHEAD. ) ;
#253 = ORIENTED_EDGE ( 'NONE', *, *, #32, .T. ) ;
#254 = PERSON_AND_ORGANIZATION ( #187, #2 ) ;
#255 = CARTESIAN_POINT ( 'NONE',  ( -14.00000000000000000, 0.000000000000000000, 0.000000000000000000 ) ) ;
ENDSEC;
END-ISO-10303-21;
