ISO-10303-21;
HEADER;
FILE_DESCRIPTION (( 'STEP AP203' ),
    '1' );
FILE_NAME ('05d5.STEP',
    '2023-02-13T13:05:51',
    ( '' ),
    ( '' ),
    'SwSTEP 2.0',
    'SolidWorks 2019',
    '' );
FILE_SCHEMA (( 'CONFIG_CONTROL_DESIGN' ));
ENDSEC;

DATA;
#1 = APPROVAL ( #29, 'NEURÈENÝ' ) ;
#2 = PERSON_AND_ORGANIZATION ( #113, #176 ) ;
#3 = DIRECTION ( 'NONE',  ( 1.000000000000000000, 0.000000000000000000, 0.000000000000000000 ) ) ;
#4 = AXIS2_PLACEMENT_3D ( 'NONE', #36, #39, #110 ) ;
#5 = DIRECTION ( 'NONE',  ( 0.000000000000000000, 0.000000000000000000, 1.000000000000000000 ) ) ;
#6 = DIRECTION ( 'NONE',  ( -0.000000000000000000, -0.000000000000000000, -1.000000000000000000 ) ) ;
#7 = PERSON_AND_ORGANIZATION ( #113, #176 ) ;
#8 = DIRECTION ( 'NONE',  ( 0.000000000000000000, 0.000000000000000000, 1.000000000000000000 ) ) ;
#9 = CIRCLE ( 'NONE', #46, 8.000000000000000000 ) ;
#10 = DATE_TIME_ROLE ( 'creation_date' ) ;
#11 = CARTESIAN_POINT ( 'NONE',  ( -8.000000000000000000, 0.000000000000000000, 6.500000000000000000 ) ) ;
#12 = ADVANCED_FACE ( 'NONE', ( #20 ), #197, .T. ) ;
#13 = FACE_OUTER_BOUND ( 'NONE', #194, .T. ) ;
#14 = VERTEX_POINT ( 'NONE', #220 ) ;
#15 = FACE_OUTER_BOUND ( 'NONE', #255, .T. ) ;
#16 = DIRECTION ( 'NONE',  ( 1.000000000000000000, 0.000000000000000000, -0.000000000000000000 ) ) ;
#17 =( GEOMETRIC_REPRESENTATION_CONTEXT ( 3 ) GLOBAL_UNCERTAINTY_ASSIGNED_CONTEXT ( ( #63 ) ) GLOBAL_UNIT_ASSIGNED_CONTEXT ( ( #132, #34, #112 ) ) REPRESENTATION_CONTEXT ( 'NONE', 'WORKASPACE' ) );
#18 = EDGE_CURVE ( 'NONE', #133, #138, #210, .T. ) ;
#19 = ORIENTED_EDGE ( 'NONE', *, *, #18, .T. ) ;
#20 = FACE_OUTER_BOUND ( 'NONE', #238, .T. ) ;
#21 = AXIS2_PLACEMENT_3D ( 'NONE', #143, #127, #180 ) ;
#22 = CC_DESIGN_APPROVAL ( #164, ( #105 ) ) ;
#23 = DIRECTION ( 'NONE',  ( 1.000000000000000000, 0.000000000000000000, -0.000000000000000000 ) ) ;
#24 = SECURITY_CLASSIFICATION_LEVEL ( 'unclassified' ) ;
#25 = VECTOR ( 'NONE', #128, 1000.000000000000000 ) ;
#26 = PERSON_AND_ORGANIZATION ( #113, #176 ) ;
#27 = DIRECTION ( 'NONE',  ( 1.000000000000000000, 0.000000000000000000, 0.000000000000000000 ) ) ;
#28 = CARTESIAN_POINT ( 'NONE',  ( -5.100000000000001421, 0.000000000000000000, 6.500000000000000000 ) ) ;
#29 = APPROVAL_STATUS ( 'not_yet_approved' ) ;
#30 = DIRECTION ( 'NONE',  ( 0.000000000000000000, 0.000000000000000000, 1.000000000000000000 ) ) ;
#31 = LINE ( 'NONE', #213, #146 ) ;
#32 = CC_DESIGN_APPROVAL ( #1, ( #114 ) ) ;
#33 = APPROVAL ( #177, 'NEURÈENÝ' ) ;
#34 =( NAMED_UNIT ( * ) PLANE_ANGLE_UNIT ( ) SI_UNIT ( $, .RADIAN. ) );
#35 = ORIENTED_EDGE ( 'NONE', *, *, #189, .F. ) ;
#36 = CARTESIAN_POINT ( 'NONE',  ( 0.000000000000000000, 0.000000000000000000, 500.0000000000000000 ) ) ;
#37 = ADVANCED_FACE ( 'NONE', ( #60 ), #85, .F. ) ;
#38 = EDGE_LOOP ( 'NONE', ( #58, #111, #90, #216 ) ) ;
#39 = DIRECTION ( 'NONE',  ( -0.000000000000000000, -0.000000000000000000, -1.000000000000000000 ) ) ;
#40 = EDGE_CURVE ( 'NONE', #116, #254, #214, .T. ) ;
#41 = MECHANICAL_CONTEXT ( 'NONE', #72, 'mechanical' ) ;
#42 = AXIS2_PLACEMENT_3D ( 'NONE', #109, #191, #16 ) ;
#43 = ORIENTED_EDGE ( 'NONE', *, *, #189, .T. ) ;
#44 = EDGE_CURVE ( 'NONE', #14, #192, #68, .T. ) ;
#45 = ORIENTED_EDGE ( 'NONE', *, *, #108, .T. ) ;
#46 = AXIS2_PLACEMENT_3D ( 'NONE', #167, #104, #81 ) ;
#47 = LOCAL_TIME ( 14, 5, 51.00000000000000000, #205 ) ;
#48 = DIRECTION ( 'NONE',  ( 1.000000000000000000, 0.000000000000000000, 0.000000000000000000 ) ) ;
#49 = PERSON_AND_ORGANIZATION_ROLE ( 'classification_officer' ) ;
#50 = DIRECTION ( 'NONE',  ( 0.000000000000000000, 0.000000000000000000, 1.000000000000000000 ) ) ;
#51 = CARTESIAN_POINT ( 'NONE',  ( 8.000000000000000000, 9.797174393178823685E-16, 6.500000000000000000 ) ) ;
#52 = DIRECTION ( 'NONE',  ( 0.000000000000000000, 0.000000000000000000, 1.000000000000000000 ) ) ;
#53 = CARTESIAN_POINT ( 'NONE',  ( 5.100000000000001421, 6.245698675651502811E-16, 500.0000000000000000 ) ) ;
#54 = ADVANCED_FACE ( 'NONE', ( #64 ), #149, .T. ) ;
#55 = PLANE ( 'NONE',  #42 ) ;
#56 = CARTESIAN_POINT ( 'NONE',  ( -8.000000000000000000, 0.000000000000000000, 6.500000000000000000 ) ) ;
#57 = PRODUCT ( '05d5', '05d5', '', ( #41 ) ) ;
#58 = ORIENTED_EDGE ( 'NONE', *, *, #65, .F. ) ;
#59 = PERSON_AND_ORGANIZATION ( #113, #176 ) ;
#60 = FACE_OUTER_BOUND ( 'NONE', #209, .T. ) ;
#61 = CC_DESIGN_PERSON_AND_ORGANIZATION_ASSIGNMENT ( #2, #139, ( #131 ) ) ;
#62 = DIRECTION ( 'NONE',  ( -0.000000000000000000, -0.000000000000000000, -1.000000000000000000 ) ) ;
#63 = UNCERTAINTY_MEASURE_WITH_UNIT (LENGTH_MEASURE( 1.000000000000000082E-05 ), #132, 'distance_accuracy_value', 'NONE');
#64 = FACE_OUTER_BOUND ( 'NONE', #38, .T. ) ;
#65 = EDGE_CURVE ( 'NONE', #133, #155, #106, .T. ) ;
#66 = PERSON_AND_ORGANIZATION ( #113, #176 ) ;
#67 = CARTESIAN_POINT ( 'NONE',  ( 5.100000000000001421, 6.245698675651502811E-16, 500.0000000000000000 ) ) ;
#68 = CIRCLE ( 'NONE', #233, 8.000000000000000000 ) ;
#69 = PERSON_AND_ORGANIZATION ( #113, #176 ) ;
#70 = CARTESIAN_POINT ( 'NONE',  ( 0.000000000000000000, 0.000000000000000000, 0.000000000000000000 ) ) ;
#71 = DIRECTION ( 'NONE',  ( -0.000000000000000000, -0.000000000000000000, -1.000000000000000000 ) ) ;
#72 = APPLICATION_CONTEXT ( 'configuration controlled 3d designs of mechanical parts and assemblies' ) ;
#73 = EDGE_LOOP ( 'NONE', ( #137, #199 ) ) ;
#74 = CARTESIAN_POINT ( 'NONE',  ( 0.000000000000000000, 0.000000000000000000, 6.500000000000000000 ) ) ;
#75 = AXIS2_PLACEMENT_3D ( 'NONE', #148, #101, #3 ) ;
#76 = DIRECTION ( 'NONE',  ( 1.000000000000000000, 0.000000000000000000, 0.000000000000000000 ) ) ;
#77 = ORIENTED_EDGE ( 'NONE', *, *, #40, .F. ) ;
#78 = ORIENTED_EDGE ( 'NONE', *, *, #217, .T. ) ;
#79 = AXIS2_PLACEMENT_3D ( 'NONE', #204, #52, #27 ) ;
#80 = DATE_AND_TIME ( #206, #250 ) ;
#81 = DIRECTION ( 'NONE',  ( 1.000000000000000000, 0.000000000000000000, 0.000000000000000000 ) ) ;
#82 = AXIS2_PLACEMENT_3D ( 'NONE', #175, #62, #140 ) ;
#83 = AXIS2_PLACEMENT_3D ( 'NONE', #124, #8, #226 ) ;
#84 = APPROVAL_ROLE ( '' ) ;
#85 = PLANE ( 'NONE',  #190 ) ;
#86 = CARTESIAN_POINT ( 'NONE',  ( 8.000000000000000000, 9.797174393178823685E-16, 6.500000000000000000 ) ) ;
#87 = EDGE_CURVE ( 'NONE', #116, #14, #202, .T. ) ;
#88 = AXIS2_PLACEMENT_3D ( 'NONE', #224, #122, #239 ) ;
#89 = CALENDAR_DATE ( 2023, 13, 2 ) ;
#90 = ORIENTED_EDGE ( 'NONE', *, *, #196, .T. ) ;
#91 = AXIS2_PLACEMENT_3D ( 'NONE', #171, #249, #76 ) ;
#92 = CC_DESIGN_PERSON_AND_ORGANIZATION_ASSIGNMENT ( #7, #179, ( #105 ) ) ;
#93 = CARTESIAN_POINT ( 'NONE',  ( 0.000000000000000000, 0.000000000000000000, 500.0000000000000000 ) ) ;
#94 = CIRCLE ( 'NONE', #75, 5.100000000000001421 ) ;
#95 = VERTEX_POINT ( 'NONE', #28 ) ;
#96 = CIRCLE ( 'NONE', #242, 5.100000000000001421 ) ;
#97 = DESIGN_CONTEXT ( 'detailed design', #141, 'design' ) ;
#98 = DIRECTION ( 'NONE',  ( -0.000000000000000000, -0.000000000000000000, -1.000000000000000000 ) ) ;
#99 = ADVANCED_FACE ( 'NONE', ( #145, #241 ), #186, .T. ) ;
#100 = DATE_AND_TIME ( #120, #136 ) ;
#101 = DIRECTION ( 'NONE',  ( 0.000000000000000000, 0.000000000000000000, 1.000000000000000000 ) ) ;
#102 = CARTESIAN_POINT ( 'NONE',  ( 0.000000000000000000, 0.000000000000000000, 0.000000000000000000 ) ) ;
#103 = COORDINATED_UNIVERSAL_TIME_OFFSET ( 1, 0, .AHEAD. ) ;
#104 = DIRECTION ( 'NONE',  ( 0.000000000000000000, 0.000000000000000000, 1.000000000000000000 ) ) ;
#105 = PRODUCT_DEFINITION ( 'NEZNÁMÝ', '', #131, #97 ) ;
#106 = LINE ( 'NONE', #53, #25 ) ;
#107 = APPROVAL_PERSON_ORGANIZATION ( #69, #33, #147 ) ;
#108 = EDGE_CURVE ( 'NONE', #254, #192, #182, .T. ) ;
#109 = CARTESIAN_POINT ( 'NONE',  ( 0.000000000000000000, 0.000000000000000000, 500.0000000000000000 ) ) ;
#110 = DIRECTION ( 'NONE',  ( -1.000000000000000000, 0.000000000000000000, 0.000000000000000000 ) ) ;
#111 = ORIENTED_EDGE ( 'NONE', *, *, #115, .F. ) ;
#112 =( NAMED_UNIT ( * ) SI_UNIT ( $, .STERADIAN. ) SOLID_ANGLE_UNIT ( ) );
#113 = PERSON ( 'NEURÈENÝ', 'NEURÈENÝ', 'NEURÈENÝ', ('NEURÈENÝ'), ('NEURÈENÝ'), ('NEURÈENÝ') ) ;
#114 = SECURITY_CLASSIFICATION ( '', '', #24 ) ;
#115 = EDGE_CURVE ( 'NONE', #138, #133, #94, .T. ) ;
#116 = VERTEX_POINT ( 'NONE', #86 ) ;
#117 = APPLICATION_PROTOCOL_DEFINITION ( 'international standard', 'config_control_design', 1994, #141 ) ;
#118 = MANIFOLD_SOLID_BREP ( 'Pøidat vysunutím3', #161 ) ;
#119 = CIRCLE ( 'NONE', #79, 8.000000000000000000 ) ;
#120 = CALENDAR_DATE ( 2023, 13, 2 ) ;
#121 = DATE_AND_TIME ( #123, #221 ) ;
#122 = DIRECTION ( 'NONE',  ( 0.000000000000000000, 0.000000000000000000, 1.000000000000000000 ) ) ;
#123 = CALENDAR_DATE ( 2023, 13, 2 ) ;
#124 = CARTESIAN_POINT ( 'NONE',  ( 0.000000000000000000, 0.000000000000000000, 6.500000000000000000 ) ) ;
#125 = VECTOR ( 'NONE', #6, 1000.000000000000000 ) ;
#126 = APPROVAL_STATUS ( 'not_yet_approved' ) ;
#127 = DIRECTION ( 'NONE',  ( -0.000000000000000000, -0.000000000000000000, -1.000000000000000000 ) ) ;
#128 = DIRECTION ( 'NONE',  ( -0.000000000000000000, -0.000000000000000000, -1.000000000000000000 ) ) ;
#129 = CARTESIAN_POINT ( 'NONE',  ( 0.000000000000000000, 0.000000000000000000, 6.500000000000000000 ) ) ;
#130 = CC_DESIGN_SECURITY_CLASSIFICATION ( #114, ( #131 ) ) ;
#131 = PRODUCT_DEFINITION_FORMATION_WITH_SPECIFIED_SOURCE ( 'LIBOVOLNÝ', '', #57, .NOT_KNOWN. ) ;
#132 =( LENGTH_UNIT ( ) NAMED_UNIT ( * ) SI_UNIT ( .MILLI., .METRE. ) );
#133 = VERTEX_POINT ( 'NONE', #67 ) ;
#134 = ORIENTED_EDGE ( 'NONE', *, *, #108, .F. ) ;
#135 = EDGE_CURVE ( 'NONE', #254, #116, #9, .T. ) ;
#136 = LOCAL_TIME ( 14, 5, 51.00000000000000000, #103 ) ;
#137 = ORIENTED_EDGE ( 'NONE', *, *, #135, .T. ) ;
#138 = VERTEX_POINT ( 'NONE', #163 ) ;
#139 = PERSON_AND_ORGANIZATION_ROLE ( 'creator' ) ;
#140 = DIRECTION ( 'NONE',  ( -1.000000000000000000, 0.000000000000000000, 0.000000000000000000 ) ) ;
#141 = APPLICATION_CONTEXT ( 'configuration controlled 3d designs of mechanical parts and assemblies' ) ;
#142 = SHAPE_DEFINITION_REPRESENTATION ( #231, #218 ) ;
#143 = CARTESIAN_POINT ( 'NONE',  ( 0.000000000000000000, 0.000000000000000000, 500.0000000000000000 ) ) ;
#144 = COORDINATED_UNIVERSAL_TIME_OFFSET ( 1, 0, .AHEAD. ) ;
#145 = FACE_BOUND ( 'NONE', #235, .T. ) ;
#146 = VECTOR ( 'NONE', #152, 1000.000000000000000 ) ;
#147 = APPROVAL_ROLE ( '' ) ;
#148 = CARTESIAN_POINT ( 'NONE',  ( 0.000000000000000000, 0.000000000000000000, 500.0000000000000000 ) ) ;
#149 = CYLINDRICAL_SURFACE ( 'NONE', #21, 5.100000000000001421 ) ;
#150 = DIRECTION ( 'NONE',  ( -1.000000000000000000, 0.000000000000000000, 0.000000000000000000 ) ) ;
#151 = DIRECTION ( 'NONE',  ( 0.000000000000000000, 0.000000000000000000, 1.000000000000000000 ) ) ;
#152 = DIRECTION ( 'NONE',  ( -0.000000000000000000, -0.000000000000000000, -1.000000000000000000 ) ) ;
#153 = VECTOR ( 'NONE', #98, 1000.000000000000000 ) ;
#154 = FACE_OUTER_BOUND ( 'NONE', #188, .T. ) ;
#155 = VERTEX_POINT ( 'NONE', #184 ) ;
#156 = ORIENTED_EDGE ( 'NONE', *, *, #65, .T. ) ;
#157 = LOCAL_TIME ( 14, 5, 51.00000000000000000, #200 ) ;
#158 = ORIENTED_EDGE ( 'NONE', *, *, #87, .T. ) ;
#159 = CC_DESIGN_PERSON_AND_ORGANIZATION_ASSIGNMENT ( #66, #219, ( #131 ) ) ;
#160 = ORIENTED_EDGE ( 'NONE', *, *, #18, .F. ) ;
#161 = CLOSED_SHELL ( 'NONE', ( #243, #12, #208, #99, #37, #54, #251 ) ) ;
#162 = APPROVAL_ROLE ( '' ) ;
#163 = CARTESIAN_POINT ( 'NONE',  ( -5.100000000000001421, 0.000000000000000000, 500.0000000000000000 ) ) ;
#164 = APPROVAL ( #126, 'NEURÈENÝ' ) ;
#165 = CALENDAR_DATE ( 2023, 13, 2 ) ;
#166 = APPROVAL_DATE_TIME ( #183, #1 ) ;
#167 = CARTESIAN_POINT ( 'NONE',  ( 0.000000000000000000, 0.000000000000000000, 6.500000000000000000 ) ) ;
#168 = CIRCLE ( 'NONE', #83, 5.100000000000001421 ) ;
#169 = ORIENTED_EDGE ( 'NONE', *, *, #44, .F. ) ;
#170 = CC_DESIGN_DATE_AND_TIME_ASSIGNMENT ( #121, #10, ( #105 ) ) ;
#171 = CARTESIAN_POINT ( 'NONE',  ( 0.000000000000000000, 0.000000000000000000, 0.000000000000000000 ) ) ;
#172 = AXIS2_PLACEMENT_3D ( 'NONE', #129, #5, #23 ) ;
#173 = ORIENTED_EDGE ( 'NONE', *, *, #217, .F. ) ;
#174 = ORIENTED_EDGE ( 'NONE', *, *, #196, .F. ) ;
#175 = CARTESIAN_POINT ( 'NONE',  ( 0.000000000000000000, 0.000000000000000000, 6.500000000000000000 ) ) ;
#176 = ORGANIZATION ( 'NEURÈENÝ', 'NEURÈENÝ', '' ) ;
#177 = APPROVAL_STATUS ( 'not_yet_approved' ) ;
#178 = PRODUCT_RELATED_PRODUCT_CATEGORY ( 'detail', '', ( #57 ) ) ;
#179 = PERSON_AND_ORGANIZATION_ROLE ( 'creator' ) ;
#180 = DIRECTION ( 'NONE',  ( -1.000000000000000000, 0.000000000000000000, 0.000000000000000000 ) ) ;
#181 = PERSON_AND_ORGANIZATION ( #113, #176 ) ;
#182 = LINE ( 'NONE', #11, #125 ) ;
#183 = DATE_AND_TIME ( #165, #157 ) ;
#184 = CARTESIAN_POINT ( 'NONE',  ( 5.100000000000001421, 6.245698675651502811E-16, 6.500000000000000000 ) ) ;
#185 = DATE_AND_TIME ( #89, #47 ) ;
#186 = PLANE ( 'NONE',  #172 ) ;
#187 = EDGE_CURVE ( 'NONE', #95, #155, #168, .T. ) ;
#188 = EDGE_LOOP ( 'NONE', ( #160, #156, #78, #174 ) ) ;
#189 = EDGE_CURVE ( 'NONE', #192, #14, #119, .T. ) ;
#190 = AXIS2_PLACEMENT_3D ( 'NONE', #102, #30, #223 ) ;
#191 = DIRECTION ( 'NONE',  ( 0.000000000000000000, 0.000000000000000000, 1.000000000000000000 ) ) ;
#192 = VERTEX_POINT ( 'NONE', #234 ) ;
#193 = CC_DESIGN_PERSON_AND_ORGANIZATION_ASSIGNMENT ( #59, #195, ( #57 ) ) ;
#194 = EDGE_LOOP ( 'NONE', ( #252, #236, #45, #43 ) ) ;
#195 = PERSON_AND_ORGANIZATION_ROLE ( 'design_owner' ) ;
#196 = EDGE_CURVE ( 'NONE', #138, #95, #31, .T. ) ;
#197 = CYLINDRICAL_SURFACE ( 'NONE', #82, 8.000000000000000000 ) ;
#198 = PERSON_AND_ORGANIZATION ( #113, #176 ) ;
#199 = ORIENTED_EDGE ( 'NONE', *, *, #40, .T. ) ;
#200 = COORDINATED_UNIVERSAL_TIME_OFFSET ( 1, 0, .AHEAD. ) ;
#201 = APPROVAL_DATE_TIME ( #185, #33 ) ;
#202 = LINE ( 'NONE', #51, #153 ) ;
#203 = DATE_TIME_ROLE ( 'classification_date' ) ;
#204 = CARTESIAN_POINT ( 'NONE',  ( 0.000000000000000000, 0.000000000000000000, 0.000000000000000000 ) ) ;
#205 = COORDINATED_UNIVERSAL_TIME_OFFSET ( 1, 0, .AHEAD. ) ;
#206 = CALENDAR_DATE ( 2023, 13, 2 ) ;
#207 = DIRECTION ( 'NONE',  ( 1.000000000000000000, 0.000000000000000000, 0.000000000000000000 ) ) ;
#208 = ADVANCED_FACE ( 'NONE', ( #13 ), #244, .T. ) ;
#209 = EDGE_LOOP ( 'NONE', ( #35, #169 ) ) ;
#210 = CIRCLE ( 'NONE', #227, 5.100000000000001421 ) ;
#211 = ORIENTED_EDGE ( 'NONE', *, *, #44, .T. ) ;
#212 = APPROVAL_PERSON_ORGANIZATION ( #198, #164, #84 ) ;
#213 = CARTESIAN_POINT ( 'NONE',  ( -5.100000000000001421, 0.000000000000000000, 500.0000000000000000 ) ) ;
#214 = CIRCLE ( 'NONE', #88, 8.000000000000000000 ) ;
#215 = AXIS2_PLACEMENT_3D ( 'NONE', #74, #71, #150 ) ;
#216 = ORIENTED_EDGE ( 'NONE', *, *, #187, .T. ) ;
#217 = EDGE_CURVE ( 'NONE', #155, #95, #96, .T. ) ;
#218 = ADVANCED_BREP_SHAPE_REPRESENTATION ( '05d5', ( #118, #91 ), #17 ) ;
#219 = PERSON_AND_ORGANIZATION_ROLE ( 'design_supplier' ) ;
#220 = CARTESIAN_POINT ( 'NONE',  ( 8.000000000000000000, 9.797174393178823685E-16, 0.000000000000000000 ) ) ;
#221 = LOCAL_TIME ( 14, 5, 51.00000000000000000, #222 ) ;
#222 = COORDINATED_UNIVERSAL_TIME_OFFSET ( 1, 0, .AHEAD. ) ;
#223 = DIRECTION ( 'NONE',  ( 1.000000000000000000, 0.000000000000000000, -0.000000000000000000 ) ) ;
#224 = CARTESIAN_POINT ( 'NONE',  ( 0.000000000000000000, 0.000000000000000000, 6.500000000000000000 ) ) ;
#225 = APPROVAL_PERSON_ORGANIZATION ( #26, #1, #162 ) ;
#226 = DIRECTION ( 'NONE',  ( 1.000000000000000000, 0.000000000000000000, 0.000000000000000000 ) ) ;
#227 = AXIS2_PLACEMENT_3D ( 'NONE', #93, #253, #48 ) ;
#228 = CYLINDRICAL_SURFACE ( 'NONE', #4, 5.100000000000001421 ) ;
#229 = CC_DESIGN_DATE_AND_TIME_ASSIGNMENT ( #80, #203, ( #114 ) ) ;
#230 = APPLICATION_PROTOCOL_DEFINITION ( 'international standard', 'config_control_design', 1994, #72 ) ;
#231 = PRODUCT_DEFINITION_SHAPE ( 'NONE', 'NONE',  #105 ) ;
#232 = CARTESIAN_POINT ( 'NONE',  ( 0.000000000000000000, 0.000000000000000000, 6.500000000000000000 ) ) ;
#233 = AXIS2_PLACEMENT_3D ( 'NONE', #70, #50, #207 ) ;
#234 = CARTESIAN_POINT ( 'NONE',  ( -8.000000000000000000, 0.000000000000000000, 0.000000000000000000 ) ) ;
#235 = EDGE_LOOP ( 'NONE', ( #247, #173 ) ) ;
#236 = ORIENTED_EDGE ( 'NONE', *, *, #135, .F. ) ;
#237 = ORIENTED_EDGE ( 'NONE', *, *, #115, .T. ) ;
#238 = EDGE_LOOP ( 'NONE', ( #77, #158, #211, #134 ) ) ;
#239 = DIRECTION ( 'NONE',  ( 1.000000000000000000, 0.000000000000000000, 0.000000000000000000 ) ) ;
#240 = APPROVAL_DATE_TIME ( #100, #164 ) ;
#241 = FACE_OUTER_BOUND ( 'NONE', #73, .T. ) ;
#242 = AXIS2_PLACEMENT_3D ( 'NONE', #232, #151, #245 ) ;
#243 = ADVANCED_FACE ( 'NONE', ( #154 ), #228, .T. ) ;
#244 = CYLINDRICAL_SURFACE ( 'NONE', #215, 8.000000000000000000 ) ;
#245 = DIRECTION ( 'NONE',  ( 1.000000000000000000, 0.000000000000000000, 0.000000000000000000 ) ) ;
#246 = CC_DESIGN_APPROVAL ( #33, ( #131 ) ) ;
#247 = ORIENTED_EDGE ( 'NONE', *, *, #187, .F. ) ;
#248 = CC_DESIGN_PERSON_AND_ORGANIZATION_ASSIGNMENT ( #181, #49, ( #114 ) ) ;
#249 = DIRECTION ( 'NONE',  ( 0.000000000000000000, 0.000000000000000000, 1.000000000000000000 ) ) ;
#250 = LOCAL_TIME ( 14, 5, 51.00000000000000000, #144 ) ;
#251 = ADVANCED_FACE ( 'NONE', ( #15 ), #55, .T. ) ;
#252 = ORIENTED_EDGE ( 'NONE', *, *, #87, .F. ) ;
#253 = DIRECTION ( 'NONE',  ( 0.000000000000000000, 0.000000000000000000, 1.000000000000000000 ) ) ;
#254 = VERTEX_POINT ( 'NONE', #56 ) ;
#255 = EDGE_LOOP ( 'NONE', ( #237, #19 ) ) ;
ENDSEC;
END-ISO-10303-21;
