ISO-10303-21;
HEADER;
FILE_DESCRIPTION (( 'STEP AP203' ),
    '1' );
FILE_NAME ('06dd.STEP',
    '2023-02-13T17:05:53',
    ( '' ),
    ( '' ),
    'SwSTEP 2.0',
    'SolidWorks 2019',
    '' );
FILE_SCHEMA (( 'CONFIG_CONTROL_DESIGN' ));
ENDSEC;

DATA;
#1 = DIRECTION ( 'NONE',  ( -0.000000000000000000, -0.000000000000000000, -1.000000000000000000 ) ) ;
#2 = COORDINATED_UNIVERSAL_TIME_OFFSET ( 1, 0, .AHEAD. ) ;
#3 = APPROVAL_STATUS ( 'not_yet_approved' ) ;
#4 = CYLINDRICAL_SURFACE ( 'NONE', #10, 1.100000000000000089 ) ;
#5 = DIRECTION ( 'NONE',  ( 0.000000000000000000, 0.000000000000000000, 1.000000000000000000 ) ) ;
#6 = DIRECTION ( 'NONE',  ( 1.000000000000000000, 0.000000000000000000, 0.000000000000000000 ) ) ;
#7 = ORIENTED_EDGE ( 'NONE', *, *, #209, .F. ) ;
#8 = APPROVAL_PERSON_ORGANIZATION ( #128, #237, #28 ) ;
#9 = ORIENTED_EDGE ( 'NONE', *, *, #176, .T. ) ;
#10 = AXIS2_PLACEMENT_3D ( 'NONE', #204, #18, #184 ) ;
#11 = CC_DESIGN_APPROVAL ( #171, ( #203 ) ) ;
#12 = ORIENTED_EDGE ( 'NONE', *, *, #191, .F. ) ;
#13 = EDGE_CURVE ( 'NONE', #219, #51, #179, .T. ) ;
#14 = PERSON_AND_ORGANIZATION ( #246, #80 ) ;
#15 = CARTESIAN_POINT ( 'NONE',  ( 2.000000000000000000, 2.449293598294706414E-16, 2.000000000000000000 ) ) ;
#16 = FACE_OUTER_BOUND ( 'NONE', #156, .T. ) ;
#17 = FACE_BOUND ( 'NONE', #86, .T. ) ;
#18 = DIRECTION ( 'NONE',  ( -0.000000000000000000, -0.000000000000000000, -1.000000000000000000 ) ) ;
#19 = DIRECTION ( 'NONE',  ( 1.000000000000000000, 0.000000000000000000, 0.000000000000000000 ) ) ;
#20 = EDGE_LOOP ( 'NONE', ( #12, #46, #240, #42 ) ) ;
#21 = AXIS2_PLACEMENT_3D ( 'NONE', #61, #105, #202 ) ;
#22 = CIRCLE ( 'NONE', #188, 1.100000000000000089 ) ;
#23 = DIRECTION ( 'NONE',  ( 0.000000000000000000, 0.000000000000000000, 1.000000000000000000 ) ) ;
#24 = EDGE_CURVE ( 'NONE', #200, #235, #146, .T. ) ;
#25 = CARTESIAN_POINT ( 'NONE',  ( -2.000000000000000000, 0.000000000000000000, 2.000000000000000000 ) ) ;
#26 = ORIENTED_EDGE ( 'NONE', *, *, #228, .F. ) ;
#27 = PERSON_AND_ORGANIZATION ( #246, #80 ) ;
#28 = APPROVAL_ROLE ( '' ) ;
#29 = CIRCLE ( 'NONE', #21, 1.100000000000000089 ) ;
#30 = VERTEX_POINT ( 'NONE', #59 ) ;
#31 = APPROVAL_DATE_TIME ( #253, #171 ) ;
#32 = LINE ( 'NONE', #97, #185 ) ;
#33 = CALENDAR_DATE ( 2023, 13, 2 ) ;
#34 = CARTESIAN_POINT ( 'NONE',  ( 0.000000000000000000, 0.000000000000000000, 2.000000000000000000 ) ) ;
#35 = CIRCLE ( 'NONE', #167, 1.100000000000000089 ) ;
#36 = DIRECTION ( 'NONE',  ( 1.000000000000000000, 0.000000000000000000, 0.000000000000000000 ) ) ;
#37 = ADVANCED_FACE ( 'NONE', ( #16 ), #103, .F. ) ;
#38 = DIRECTION ( 'NONE',  ( 1.000000000000000000, 0.000000000000000000, -0.000000000000000000 ) ) ;
#39 = DIRECTION ( 'NONE',  ( -0.000000000000000000, -0.000000000000000000, -1.000000000000000000 ) ) ;
#40 = CARTESIAN_POINT ( 'NONE',  ( 0.000000000000000000, 0.000000000000000000, 0.000000000000000000 ) ) ;
#41 = CC_DESIGN_DATE_AND_TIME_ASSIGNMENT ( #252, #72, ( #203 ) ) ;
#42 = ORIENTED_EDGE ( 'NONE', *, *, #161, .F. ) ;
#43 = AXIS2_PLACEMENT_3D ( 'NONE', #113, #194, #116 ) ;
#44 = DATE_TIME_ROLE ( 'creation_date' ) ;
#45 = EDGE_CURVE ( 'NONE', #51, #219, #149, .T. ) ;
#46 = ORIENTED_EDGE ( 'NONE', *, *, #24, .T. ) ;
#47 = CALENDAR_DATE ( 2023, 13, 2 ) ;
#48 = ORIENTED_EDGE ( 'NONE', *, *, #45, .T. ) ;
#49 = VECTOR ( 'NONE', #127, 1000.000000000000000 ) ;
#50 = APPROVAL_STATUS ( 'not_yet_approved' ) ;
#51 = VERTEX_POINT ( 'NONE', #227 ) ;
#52 = APPROVAL ( #3, 'NEURÈENÝ' ) ;
#53 = EDGE_CURVE ( 'NONE', #198, #212, #121, .T. ) ;
#54 = DIRECTION ( 'NONE',  ( 0.000000000000000000, 0.000000000000000000, 1.000000000000000000 ) ) ;
#55 = PERSON_AND_ORGANIZATION ( #246, #80 ) ;
#56 = FACE_OUTER_BOUND ( 'NONE', #238, .T. ) ;
#57 = CARTESIAN_POINT ( 'NONE',  ( 0.000000000000000000, 0.000000000000000000, 250.0000000000000000 ) ) ;
#58 = DIRECTION ( 'NONE',  ( 0.000000000000000000, 0.000000000000000000, 1.000000000000000000 ) ) ;
#59 = CARTESIAN_POINT ( 'NONE',  ( -1.100000000000000089, 0.000000000000000000, 2.000000000000000000 ) ) ;
#60 = DIRECTION ( 'NONE',  ( 1.000000000000000000, 0.000000000000000000, -0.000000000000000000 ) ) ;
#61 = CARTESIAN_POINT ( 'NONE',  ( 0.000000000000000000, 0.000000000000000000, 2.000000000000000000 ) ) ;
#62 = FACE_OUTER_BOUND ( 'NONE', #216, .T. ) ;
#63 = EDGE_CURVE ( 'NONE', #212, #198, #187, .T. ) ;
#64 = APPROVAL_DATE_TIME ( #234, #237 ) ;
#65 = PRODUCT_DEFINITION_SHAPE ( 'NONE', 'NONE',  #130 ) ;
#66 =( LENGTH_UNIT ( ) NAMED_UNIT ( * ) SI_UNIT ( .MILLI., .METRE. ) );
#67 = PERSON_AND_ORGANIZATION_ROLE ( 'design_owner' ) ;
#68 = VECTOR ( 'NONE', #83, 1000.000000000000000 ) ;
#69 = CIRCLE ( 'NONE', #175, 1.100000000000000089 ) ;
#70 = ORIENTED_EDGE ( 'NONE', *, *, #79, .F. ) ;
#71 = ORIENTED_EDGE ( 'NONE', *, *, #79, .T. ) ;
#72 = DATE_TIME_ROLE ( 'classification_date' ) ;
#73 = PRODUCT_RELATED_PRODUCT_CATEGORY ( 'detail', '', ( #82 ) ) ;
#74 = ADVANCED_BREP_SHAPE_REPRESENTATION ( '06dd', ( #210, #92 ), #250 ) ;
#75 = CARTESIAN_POINT ( 'NONE',  ( -2.000000000000000000, 0.000000000000000000, 0.000000000000000000 ) ) ;
#76 = PERSON_AND_ORGANIZATION_ROLE ( 'design_supplier' ) ;
#77 = CARTESIAN_POINT ( 'NONE',  ( -1.100000000000000089, 0.000000000000000000, 250.0000000000000000 ) ) ;
#78 = CARTESIAN_POINT ( 'NONE',  ( 0.000000000000000000, 0.000000000000000000, 2.000000000000000000 ) ) ;
#79 = EDGE_CURVE ( 'NONE', #30, #235, #29, .T. ) ;
#80 = ORGANIZATION ( 'NEURÈENÝ', 'NEURÈENÝ', '' ) ;
#81 = FACE_OUTER_BOUND ( 'NONE', #136, .T. ) ;
#82 = PRODUCT ( '06dd', '06dd', '', ( #224 ) ) ;
#83 = DIRECTION ( 'NONE',  ( -0.000000000000000000, -0.000000000000000000, -1.000000000000000000 ) ) ;
#84 = CARTESIAN_POINT ( 'NONE',  ( 2.000000000000000000, 2.449293598294706414E-16, 2.000000000000000000 ) ) ;
#85 = DIRECTION ( 'NONE',  ( 0.000000000000000000, 0.000000000000000000, 1.000000000000000000 ) ) ;
#86 = EDGE_LOOP ( 'NONE', ( #70, #26 ) ) ;
#87 = DIRECTION ( 'NONE',  ( 0.000000000000000000, 0.000000000000000000, 1.000000000000000000 ) ) ;
#88 = DIRECTION ( 'NONE',  ( 1.000000000000000000, 0.000000000000000000, 0.000000000000000000 ) ) ;
#89 = CC_DESIGN_PERSON_AND_ORGANIZATION_ASSIGNMENT ( #98, #173, ( #95 ) ) ;
#90 = ORIENTED_EDGE ( 'NONE', *, *, #161, .T. ) ;
#91 = ORIENTED_EDGE ( 'NONE', *, *, #53, .T. ) ;
#92 = AXIS2_PLACEMENT_3D ( 'NONE', #245, #85, #143 ) ;
#93 = CC_DESIGN_DATE_AND_TIME_ASSIGNMENT ( #134, #44, ( #130 ) ) ;
#94 = COORDINATED_UNIVERSAL_TIME_OFFSET ( 1, 0, .AHEAD. ) ;
#95 = PRODUCT_DEFINITION_FORMATION_WITH_SPECIFIED_SOURCE ( 'LIBOVOLNÝ', '', #82, .NOT_KNOWN. ) ;
#96 = ORIENTED_EDGE ( 'NONE', *, *, #186, .T. ) ;
#97 = CARTESIAN_POINT ( 'NONE',  ( -2.000000000000000000, 0.000000000000000000, 2.000000000000000000 ) ) ;
#98 = PERSON_AND_ORGANIZATION ( #246, #80 ) ;
#99 = ADVANCED_FACE ( 'NONE', ( #81 ), #207, .T. ) ;
#100 = COORDINATED_UNIVERSAL_TIME_OFFSET ( 1, 0, .AHEAD. ) ;
#101 = DIRECTION ( 'NONE',  ( 1.000000000000000000, 0.000000000000000000, 0.000000000000000000 ) ) ;
#102 = CARTESIAN_POINT ( 'NONE',  ( 0.000000000000000000, 0.000000000000000000, 250.0000000000000000 ) ) ;
#103 = PLANE ( 'NONE',  #157 ) ;
#104 = AXIS2_PLACEMENT_3D ( 'NONE', #34, #23, #19 ) ;
#105 = DIRECTION ( 'NONE',  ( 0.000000000000000000, 0.000000000000000000, 1.000000000000000000 ) ) ;
#106 = DIRECTION ( 'NONE',  ( -0.000000000000000000, -0.000000000000000000, -1.000000000000000000 ) ) ;
#107 = ADVANCED_FACE ( 'NONE', ( #56 ), #4, .T. ) ;
#108 = APPROVAL_PERSON_ORGANIZATION ( #55, #171, #220 ) ;
#109 = VERTEX_POINT ( 'NONE', #77 ) ;
#110 =( NAMED_UNIT ( * ) PLANE_ANGLE_UNIT ( ) SI_UNIT ( $, .RADIAN. ) );
#111 = CARTESIAN_POINT ( 'NONE',  ( 0.000000000000000000, 0.000000000000000000, 250.0000000000000000 ) ) ;
#112 = COORDINATED_UNIVERSAL_TIME_OFFSET ( 1, 0, .AHEAD. ) ;
#113 = CARTESIAN_POINT ( 'NONE',  ( 0.000000000000000000, 0.000000000000000000, 250.0000000000000000 ) ) ;
#114 = CALENDAR_DATE ( 2023, 13, 2 ) ;
#115 = LOCAL_TIME ( 18, 5, 53.00000000000000000, #233 ) ;
#116 = DIRECTION ( 'NONE',  ( 1.000000000000000000, 0.000000000000000000, -0.000000000000000000 ) ) ;
#117 = DESIGN_CONTEXT ( 'detailed design', #177, 'design' ) ;
#118 = VECTOR ( 'NONE', #244, 1000.000000000000000 ) ;
#119 = ADVANCED_FACE ( 'NONE', ( #162 ), #164, .T. ) ;
#120 = PERSON_AND_ORGANIZATION_ROLE ( 'classification_officer' ) ;
#121 = CIRCLE ( 'NONE', #104, 2.000000000000000000 ) ;
#122 = DIRECTION ( 'NONE',  ( 0.000000000000000000, 0.000000000000000000, 1.000000000000000000 ) ) ;
#123 = ORIENTED_EDGE ( 'NONE', *, *, #191, .T. ) ;
#124 = CARTESIAN_POINT ( 'NONE',  ( 0.000000000000000000, 0.000000000000000000, 2.000000000000000000 ) ) ;
#125 = CARTESIAN_POINT ( 'NONE',  ( 1.100000000000000089, 1.347111479062088503E-16, 250.0000000000000000 ) ) ;
#126 = LOCAL_TIME ( 18, 5, 53.00000000000000000, #100 ) ;
#127 = DIRECTION ( 'NONE',  ( -0.000000000000000000, -0.000000000000000000, -1.000000000000000000 ) ) ;
#128 = PERSON_AND_ORGANIZATION ( #246, #80 ) ;
#129 = LOCAL_TIME ( 18, 5, 53.00000000000000000, #2 ) ;
#130 = PRODUCT_DEFINITION ( 'NEZNÁMÝ', '', #95, #117 ) ;
#131 = PLANE ( 'NONE',  #221 ) ;
#132 = DIRECTION ( 'NONE',  ( 0.000000000000000000, 0.000000000000000000, 1.000000000000000000 ) ) ;
#133 = ORIENTED_EDGE ( 'NONE', *, *, #209, .T. ) ;
#134 = DATE_AND_TIME ( #47, #115 ) ;
#135 = APPROVAL_ROLE ( '' ) ;
#136 = EDGE_LOOP ( 'NONE', ( #251, #205, #133, #255 ) ) ;
#137 = CC_DESIGN_PERSON_AND_ORGANIZATION_ASSIGNMENT ( #168, #67, ( #82 ) ) ;
#138 = AXIS2_PLACEMENT_3D ( 'NONE', #124, #180, #6 ) ;
#139 = CALENDAR_DATE ( 2023, 13, 2 ) ;
#140 = ORIENTED_EDGE ( 'NONE', *, *, #13, .F. ) ;
#141 = SHAPE_DEFINITION_REPRESENTATION ( #65, #74 ) ;
#142 = CARTESIAN_POINT ( 'NONE',  ( 0.000000000000000000, 0.000000000000000000, 2.000000000000000000 ) ) ;
#143 = DIRECTION ( 'NONE',  ( 1.000000000000000000, 0.000000000000000000, 0.000000000000000000 ) ) ;
#144 = CC_DESIGN_PERSON_AND_ORGANIZATION_ASSIGNMENT ( #195, #215, ( #130 ) ) ;
#145 = DIRECTION ( 'NONE',  ( 0.000000000000000000, 0.000000000000000000, 1.000000000000000000 ) ) ;
#146 = LINE ( 'NONE', #125, #68 ) ;
#147 = CC_DESIGN_PERSON_AND_ORGANIZATION_ASSIGNMENT ( #160, #120, ( #203 ) ) ;
#148 = DIRECTION ( 'NONE',  ( -1.000000000000000000, 0.000000000000000000, 0.000000000000000000 ) ) ;
#149 = CIRCLE ( 'NONE', #225, 2.000000000000000000 ) ;
#150 = CARTESIAN_POINT ( 'NONE',  ( 0.000000000000000000, 0.000000000000000000, 2.000000000000000000 ) ) ;
#151 = CARTESIAN_POINT ( 'NONE',  ( 1.100000000000000089, 1.347111479062088503E-16, 2.000000000000000000 ) ) ;
#152 = ADVANCED_FACE ( 'NONE', ( #248 ), #230, .T. ) ;
#153 = ORIENTED_EDGE ( 'NONE', *, *, #24, .F. ) ;
#154 = APPROVAL_STATUS ( 'not_yet_approved' ) ;
#155 = EDGE_LOOP ( 'NONE', ( #174, #96, #48, #7 ) ) ;
#156 = EDGE_LOOP ( 'NONE', ( #140, #249 ) ) ;
#157 = AXIS2_PLACEMENT_3D ( 'NONE', #40, #58, #38 ) ;
#158 = CC_DESIGN_SECURITY_CLASSIFICATION ( #203, ( #95 ) ) ;
#159 = CARTESIAN_POINT ( 'NONE',  ( 0.000000000000000000, 0.000000000000000000, 2.000000000000000000 ) ) ;
#160 = PERSON_AND_ORGANIZATION ( #246, #80 ) ;
#161 = EDGE_CURVE ( 'NONE', #109, #30, #163, .T. ) ;
#162 = FACE_OUTER_BOUND ( 'NONE', #20, .T. ) ;
#163 = LINE ( 'NONE', #247, #118 ) ;
#164 = CYLINDRICAL_SURFACE ( 'NONE', #193, 1.100000000000000089 ) ;
#165 = DIRECTION ( 'NONE',  ( -1.000000000000000000, 0.000000000000000000, 0.000000000000000000 ) ) ;
#166 = APPLICATION_PROTOCOL_DEFINITION ( 'international standard', 'config_control_design', 1994, #254 ) ;
#167 = AXIS2_PLACEMENT_3D ( 'NONE', #57, #145, #36 ) ;
#168 = PERSON_AND_ORGANIZATION ( #246, #80 ) ;
#169 = APPLICATION_PROTOCOL_DEFINITION ( 'international standard', 'config_control_design', 1994, #177 ) ;
#170 = ORIENTED_EDGE ( 'NONE', *, *, #176, .F. ) ;
#171 = APPROVAL ( #50, 'NEURÈENÝ' ) ;
#172 = EDGE_LOOP ( 'NONE', ( #9, #123 ) ) ;
#173 = PERSON_AND_ORGANIZATION_ROLE ( 'creator' ) ;
#174 = ORIENTED_EDGE ( 'NONE', *, *, #63, .F. ) ;
#175 = AXIS2_PLACEMENT_3D ( 'NONE', #159, #54, #222 ) ;
#176 = EDGE_CURVE ( 'NONE', #109, #200, #35, .T. ) ;
#177 = APPLICATION_CONTEXT ( 'configuration controlled 3d designs of mechanical parts and assemblies' ) ;
#178 = APPROVAL_DATE_TIME ( #242, #52 ) ;
#179 = CIRCLE ( 'NONE', #183, 2.000000000000000000 ) ;
#180 = DIRECTION ( 'NONE',  ( 0.000000000000000000, 0.000000000000000000, 1.000000000000000000 ) ) ;
#181 = DIRECTION ( 'NONE',  ( -1.000000000000000000, 0.000000000000000000, 0.000000000000000000 ) ) ;
#182 = CARTESIAN_POINT ( 'NONE',  ( 0.000000000000000000, 0.000000000000000000, 0.000000000000000000 ) ) ;
#183 = AXIS2_PLACEMENT_3D ( 'NONE', #223, #5, #229 ) ;
#184 = DIRECTION ( 'NONE',  ( -1.000000000000000000, 0.000000000000000000, 0.000000000000000000 ) ) ;
#185 = VECTOR ( 'NONE', #1, 1000.000000000000000 ) ;
#186 = EDGE_CURVE ( 'NONE', #212, #51, #213, .T. ) ;
#187 = CIRCLE ( 'NONE', #138, 2.000000000000000000 ) ;
#188 = AXIS2_PLACEMENT_3D ( 'NONE', #111, #132, #88 ) ;
#189 = CC_DESIGN_APPROVAL ( #237, ( #130 ) ) ;
#190 = PLANE ( 'NONE',  #43 ) ;
#191 = EDGE_CURVE ( 'NONE', #200, #109, #22, .T. ) ;
#192 =( NAMED_UNIT ( * ) SI_UNIT ( $, .STERADIAN. ) SOLID_ANGLE_UNIT ( ) );
#193 = AXIS2_PLACEMENT_3D ( 'NONE', #102, #243, #165 ) ;
#194 = DIRECTION ( 'NONE',  ( 0.000000000000000000, 0.000000000000000000, 1.000000000000000000 ) ) ;
#195 = PERSON_AND_ORGANIZATION ( #246, #80 ) ;
#196 = ORIENTED_EDGE ( 'NONE', *, *, #63, .T. ) ;
#197 = CC_DESIGN_APPROVAL ( #52, ( #95 ) ) ;
#198 = VERTEX_POINT ( 'NONE', #25 ) ;
#199 = ADVANCED_FACE ( 'NONE', ( #214 ), #190, .T. ) ;
#200 = VERTEX_POINT ( 'NONE', #217 ) ;
#201 = SECURITY_CLASSIFICATION_LEVEL ( 'unclassified' ) ;
#202 = DIRECTION ( 'NONE',  ( 1.000000000000000000, 0.000000000000000000, 0.000000000000000000 ) ) ;
#203 = SECURITY_CLASSIFICATION ( '', '', #201 ) ;
#204 = CARTESIAN_POINT ( 'NONE',  ( 0.000000000000000000, 0.000000000000000000, 250.0000000000000000 ) ) ;
#205 = ORIENTED_EDGE ( 'NONE', *, *, #53, .F. ) ;
#206 = AXIS2_PLACEMENT_3D ( 'NONE', #78, #106, #148 ) ;
#207 = CYLINDRICAL_SURFACE ( 'NONE', #206, 2.000000000000000000 ) ;
#208 = AXIS2_PLACEMENT_3D ( 'NONE', #142, #39, #181 ) ;
#209 = EDGE_CURVE ( 'NONE', #198, #219, #32, .T. ) ;
#210 = MANIFOLD_SOLID_BREP ( 'Pøidat vysunutím3', #236 ) ;
#211 = LOCAL_TIME ( 18, 5, 53.00000000000000000, #112 ) ;
#212 = VERTEX_POINT ( 'NONE', #15 ) ;
#213 = LINE ( 'NONE', #84, #49 ) ;
#214 = FACE_OUTER_BOUND ( 'NONE', #172, .T. ) ;
#215 = PERSON_AND_ORGANIZATION_ROLE ( 'creator' ) ;
#216 = EDGE_LOOP ( 'NONE', ( #91, #196 ) ) ;
#217 = CARTESIAN_POINT ( 'NONE',  ( 1.100000000000000089, 1.347111479062088503E-16, 250.0000000000000000 ) ) ;
#218 = UNCERTAINTY_MEASURE_WITH_UNIT (LENGTH_MEASURE( 1.000000000000000082E-05 ), #66, 'distance_accuracy_value', 'NONE');
#219 = VERTEX_POINT ( 'NONE', #75 ) ;
#220 = APPROVAL_ROLE ( '' ) ;
#221 = AXIS2_PLACEMENT_3D ( 'NONE', #150, #87, #60 ) ;
#222 = DIRECTION ( 'NONE',  ( 1.000000000000000000, 0.000000000000000000, 0.000000000000000000 ) ) ;
#223 = CARTESIAN_POINT ( 'NONE',  ( 0.000000000000000000, 0.000000000000000000, 0.000000000000000000 ) ) ;
#224 = MECHANICAL_CONTEXT ( 'NONE', #254, 'mechanical' ) ;
#225 = AXIS2_PLACEMENT_3D ( 'NONE', #182, #122, #101 ) ;
#226 = LOCAL_TIME ( 18, 5, 53.00000000000000000, #94 ) ;
#227 = CARTESIAN_POINT ( 'NONE',  ( 2.000000000000000000, 2.449293598294706414E-16, 0.000000000000000000 ) ) ;
#228 = EDGE_CURVE ( 'NONE', #235, #30, #69, .T. ) ;
#229 = DIRECTION ( 'NONE',  ( 1.000000000000000000, 0.000000000000000000, 0.000000000000000000 ) ) ;
#230 = CYLINDRICAL_SURFACE ( 'NONE', #208, 2.000000000000000000 ) ;
#231 = CC_DESIGN_PERSON_AND_ORGANIZATION_ASSIGNMENT ( #14, #76, ( #95 ) ) ;
#232 = ADVANCED_FACE ( 'NONE', ( #17, #62 ), #131, .T. ) ;
#233 = COORDINATED_UNIVERSAL_TIME_OFFSET ( 1, 0, .AHEAD. ) ;
#234 = DATE_AND_TIME ( #114, #211 ) ;
#235 = VERTEX_POINT ( 'NONE', #151 ) ;
#236 = CLOSED_SHELL ( 'NONE', ( #119, #152, #99, #232, #37, #107, #199 ) ) ;
#237 = APPROVAL ( #154, 'NEURÈENÝ' ) ;
#238 = EDGE_LOOP ( 'NONE', ( #153, #170, #90, #71 ) ) ;
#239 = CALENDAR_DATE ( 2023, 13, 2 ) ;
#240 = ORIENTED_EDGE ( 'NONE', *, *, #228, .T. ) ;
#241 = APPROVAL_PERSON_ORGANIZATION ( #27, #52, #135 ) ;
#242 = DATE_AND_TIME ( #239, #126 ) ;
#243 = DIRECTION ( 'NONE',  ( -0.000000000000000000, -0.000000000000000000, -1.000000000000000000 ) ) ;
#244 = DIRECTION ( 'NONE',  ( -0.000000000000000000, -0.000000000000000000, -1.000000000000000000 ) ) ;
#245 = CARTESIAN_POINT ( 'NONE',  ( 0.000000000000000000, 0.000000000000000000, 0.000000000000000000 ) ) ;
#246 = PERSON ( 'NEURÈENÝ', 'NEURÈENÝ', 'NEURÈENÝ', ('NEURÈENÝ'), ('NEURÈENÝ'), ('NEURÈENÝ') ) ;
#247 = CARTESIAN_POINT ( 'NONE',  ( -1.100000000000000089, 0.000000000000000000, 250.0000000000000000 ) ) ;
#248 = FACE_OUTER_BOUND ( 'NONE', #155, .T. ) ;
#249 = ORIENTED_EDGE ( 'NONE', *, *, #45, .F. ) ;
#250 =( GEOMETRIC_REPRESENTATION_CONTEXT ( 3 ) GLOBAL_UNCERTAINTY_ASSIGNED_CONTEXT ( ( #218 ) ) GLOBAL_UNIT_ASSIGNED_CONTEXT ( ( #66, #110, #192 ) ) REPRESENTATION_CONTEXT ( 'NONE', 'WORKASPACE' ) );
#251 = ORIENTED_EDGE ( 'NONE', *, *, #186, .F. ) ;
#252 = DATE_AND_TIME ( #33, #226 ) ;
#253 = DATE_AND_TIME ( #139, #129 ) ;
#254 = APPLICATION_CONTEXT ( 'configuration controlled 3d designs of mechanical parts and assemblies' ) ;
#255 = ORIENTED_EDGE ( 'NONE', *, *, #13, .T. ) ;
ENDSEC;
END-ISO-10303-21;
