ISO-10303-21;
HEADER;
FILE_DESCRIPTION (( 'STEP AP203' ),
    '1' );
FILE_NAME ('4d91.STEP',
    '2023-02-13T16:35:43',
    ( '' ),
    ( '' ),
    'SwSTEP 2.0',
    'SolidWorks 2019',
    '' );
FILE_SCHEMA (( 'CONFIG_CONTROL_DESIGN' ));
ENDSEC;

DATA;
#1 = FACE_OUTER_BOUND ( 'NONE', #14, .T. ) ;
#2 = ADVANCED_FACE ( 'NONE', ( #33 ), #172, .T. ) ;
#3 = CALENDAR_DATE ( 2023, 13, 2 ) ;
#4 = CARTESIAN_POINT ( 'NONE',  ( 0.000000000000000000, 0.000000000000000000, 0.000000000000000000 ) ) ;
#5 = ORIENTED_EDGE ( 'NONE', *, *, #80, .T. ) ;
#6 = ORGANIZATION ( 'NEURÈENÝ', 'NEURÈENÝ', '' ) ;
#7 = COORDINATED_UNIVERSAL_TIME_OFFSET ( 1, 0, .AHEAD. ) ;
#8 = PERSON_AND_ORGANIZATION_ROLE ( 'design_supplier' ) ;
#9 = DIRECTION ( 'NONE',  ( -1.000000000000000000, 0.000000000000000000, 0.000000000000000000 ) ) ;
#10 = AXIS2_PLACEMENT_3D ( 'NONE', #158, #82, #77 ) ;
#11 = EDGE_CURVE ( 'NONE', #230, #49, #162, .T. ) ;
#12 = EDGE_LOOP ( 'NONE', ( #133, #115, #224, #151 ) ) ;
#13 = EDGE_LOOP ( 'NONE', ( #51, #76 ) ) ;
#14 = EDGE_LOOP ( 'NONE', ( #89, #5 ) ) ;
#15 = ADVANCED_FACE ( 'NONE', ( #52 ), #150, .T. ) ;
#16 = DIRECTION ( 'NONE',  ( -1.000000000000000000, 0.000000000000000000, 0.000000000000000000 ) ) ;
#17 = CARTESIAN_POINT ( 'NONE',  ( 0.000000000000000000, 0.000000000000000000, 4.000000000000000000 ) ) ;
#18 = CARTESIAN_POINT ( 'NONE',  ( 2.000000000000000000, 2.449293598294706414E-16, 800.0000000000000000 ) ) ;
#19 = PLANE ( 'NONE',  #41 ) ;
#20 = ADVANCED_FACE ( 'NONE', ( #228 ), #212, .T. ) ;
#21 = PERSON ( 'NEURÈENÝ', 'NEURÈENÝ', 'NEURÈENÝ', ('NEURÈENÝ'), ('NEURÈENÝ'), ('NEURÈENÝ') ) ;
#22 = LINE ( 'NONE', #236, #124 ) ;
#23 = CARTESIAN_POINT ( 'NONE',  ( 0.000000000000000000, 0.000000000000000000, 800.0000000000000000 ) ) ;
#24 = CC_DESIGN_PERSON_AND_ORGANIZATION_ASSIGNMENT ( #226, #182, ( #126 ) ) ;
#25 = DIRECTION ( 'NONE',  ( 1.000000000000000000, 0.000000000000000000, 0.000000000000000000 ) ) ;
#26 = PERSON_AND_ORGANIZATION_ROLE ( 'classification_officer' ) ;
#27 = DATE_AND_TIME ( #203, #201 ) ;
#28 = AXIS2_PLACEMENT_3D ( 'NONE', #40, #159, #81 ) ;
#29 = ADVANCED_BREP_SHAPE_REPRESENTATION ( '4d91', ( #141, #195 ), #204 ) ;
#30 = ORIENTED_EDGE ( 'NONE', *, *, #42, .T. ) ;
#31 = CIRCLE ( 'NONE', #28, 2.000000000000000000 ) ;
#32 = EDGE_LOOP ( 'NONE', ( #112, #254, #46, #190 ) ) ;
#33 = FACE_OUTER_BOUND ( 'NONE', #12, .T. ) ;
#34 = DIRECTION ( 'NONE',  ( 1.000000000000000000, 0.000000000000000000, 0.000000000000000000 ) ) ;
#35 = VECTOR ( 'NONE', #161, 1000.000000000000000 ) ;
#36 = CARTESIAN_POINT ( 'NONE',  ( 0.000000000000000000, 0.000000000000000000, 800.0000000000000000 ) ) ;
#37 = CARTESIAN_POINT ( 'NONE',  ( -2.000000000000000000, 0.000000000000000000, 800.0000000000000000 ) ) ;
#38 = APPROVAL ( #198, 'NEURÈENÝ' ) ;
#39 = DIRECTION ( 'NONE',  ( 1.000000000000000000, 0.000000000000000000, -0.000000000000000000 ) ) ;
#40 = CARTESIAN_POINT ( 'NONE',  ( 0.000000000000000000, 0.000000000000000000, 4.000000000000000000 ) ) ;
#41 = AXIS2_PLACEMENT_3D ( 'NONE', #156, #58, #137 ) ;
#42 = EDGE_CURVE ( 'NONE', #49, #230, #144, .T. ) ;
#43 = APPROVAL_ROLE ( '' ) ;
#44 = AXIS2_PLACEMENT_3D ( 'NONE', #255, #239, #139 ) ;
#45 = APPROVAL_DATE_TIME ( #165, #38 ) ;
#46 = ORIENTED_EDGE ( 'NONE', *, *, #120, .T. ) ;
#47 = APPROVAL_PERSON_ORGANIZATION ( #245, #253, #85 ) ;
#48 = DIRECTION ( 'NONE',  ( -0.000000000000000000, -0.000000000000000000, -1.000000000000000000 ) ) ;
#49 = VERTEX_POINT ( 'NONE', #251 ) ;
#50 = AXIS2_PLACEMENT_3D ( 'NONE', #189, #155, #16 ) ;
#51 = ORIENTED_EDGE ( 'NONE', *, *, #99, .T. ) ;
#52 = FACE_OUTER_BOUND ( 'NONE', #128, .T. ) ;
#53 = FACE_OUTER_BOUND ( 'NONE', #174, .T. ) ;
#54 = LINE ( 'NONE', #216, #208 ) ;
#55 = CC_DESIGN_PERSON_AND_ORGANIZATION_ASSIGNMENT ( #199, #26, ( #57 ) ) ;
#56 = CARTESIAN_POINT ( 'NONE',  ( -4.000000000000000000, 0.000000000000000000, 4.000000000000000000 ) ) ;
#57 = SECURITY_CLASSIFICATION ( '', '', #103 ) ;
#58 = DIRECTION ( 'NONE',  ( 0.000000000000000000, 0.000000000000000000, 1.000000000000000000 ) ) ;
#59 = CC_DESIGN_PERSON_AND_ORGANIZATION_ASSIGNMENT ( #223, #122, ( #197 ) ) ;
#60 = DIRECTION ( 'NONE',  ( 1.000000000000000000, 0.000000000000000000, 0.000000000000000000 ) ) ;
#61 = AXIS2_PLACEMENT_3D ( 'NONE', #177, #217, #39 ) ;
#62 = FACE_OUTER_BOUND ( 'NONE', #13, .T. ) ;
#63 = PERSON_AND_ORGANIZATION ( #21, #6 ) ;
#64 = APPROVAL_DATE_TIME ( #145, #205 ) ;
#65 = AXIS2_PLACEMENT_3D ( 'NONE', #17, #214, #140 ) ;
#66 = VERTEX_POINT ( 'NONE', #72 ) ;
#67 = COORDINATED_UNIVERSAL_TIME_OFFSET ( 1, 0, .AHEAD. ) ;
#68 = PRODUCT_DEFINITION_SHAPE ( 'NONE', 'NONE',  #197 ) ;
#69 = DATE_TIME_ROLE ( 'classification_date' ) ;
#70 = DIRECTION ( 'NONE',  ( 0.000000000000000000, 0.000000000000000000, 1.000000000000000000 ) ) ;
#71 = EDGE_LOOP ( 'NONE', ( #246, #210, #30, #125 ) ) ;
#72 = CARTESIAN_POINT ( 'NONE',  ( -2.000000000000000000, 0.000000000000000000, 800.0000000000000000 ) ) ;
#73 = EDGE_CURVE ( 'NONE', #109, #111, #147, .T. ) ;
#74 = AXIS2_PLACEMENT_3D ( 'NONE', #207, #148, #232 ) ;
#75 = DIRECTION ( 'NONE',  ( 1.000000000000000000, 0.000000000000000000, 0.000000000000000000 ) ) ;
#76 = ORIENTED_EDGE ( 'NONE', *, *, #186, .T. ) ;
#77 = DIRECTION ( 'NONE',  ( 1.000000000000000000, 0.000000000000000000, 0.000000000000000000 ) ) ;
#78 = CARTESIAN_POINT ( 'NONE',  ( 4.000000000000000000, 4.898587196589412829E-16, 4.000000000000000000 ) ) ;
#79 = APPLICATION_PROTOCOL_DEFINITION ( 'international standard', 'config_control_design', 1994, #97 ) ;
#80 = EDGE_CURVE ( 'NONE', #233, #66, #187, .T. ) ;
#81 = DIRECTION ( 'NONE',  ( 1.000000000000000000, 0.000000000000000000, 0.000000000000000000 ) ) ;
#82 = DIRECTION ( 'NONE',  ( 0.000000000000000000, 0.000000000000000000, 1.000000000000000000 ) ) ;
#83 = LOCAL_TIME ( 17, 35, 43.00000000000000000, #67 ) ;
#84 = CC_DESIGN_SECURITY_CLASSIFICATION ( #57, ( #131 ) ) ;
#85 = APPROVAL_ROLE ( '' ) ;
#86 = MECHANICAL_CONTEXT ( 'NONE', #97, 'mechanical' ) ;
#87 = EDGE_CURVE ( 'NONE', #233, #111, #113, .T. ) ;
#88 = ORIENTED_EDGE ( 'NONE', *, *, #73, .T. ) ;
#89 = ORIENTED_EDGE ( 'NONE', *, *, #102, .T. ) ;
#90 = DIRECTION ( 'NONE',  ( -0.000000000000000000, -0.000000000000000000, -1.000000000000000000 ) ) ;
#91 = ORIENTED_EDGE ( 'NONE', *, *, #213, .T. ) ;
#92 = APPROVAL_PERSON_ORGANIZATION ( #220, #38, #43 ) ;
#93 = DIRECTION ( 'NONE',  ( -0.000000000000000000, -0.000000000000000000, -1.000000000000000000 ) ) ;
#94 = ADVANCED_FACE ( 'NONE', ( #53 ), #19, .F. ) ;
#95 = PLANE ( 'NONE',  #114 ) ;
#96 =( NAMED_UNIT ( * ) PLANE_ANGLE_UNIT ( ) SI_UNIT ( $, .RADIAN. ) );
#97 = APPLICATION_CONTEXT ( 'configuration controlled 3d designs of mechanical parts and assemblies' ) ;
#98 = LINE ( 'NONE', #37, #35 ) ;
#99 = EDGE_CURVE ( 'NONE', #170, #184, #227, .T. ) ;
#100 = PERSON_AND_ORGANIZATION_ROLE ( 'creator' ) ;
#101 = AXIS2_PLACEMENT_3D ( 'NONE', #154, #234, #34 ) ;
#102 = EDGE_CURVE ( 'NONE', #66, #233, #169, .T. ) ;
#103 = SECURITY_CLASSIFICATION_LEVEL ( 'unclassified' ) ;
#104 = APPROVAL_STATUS ( 'not_yet_approved' ) ;
#105 = ORIENTED_EDGE ( 'NONE', *, *, #73, .F. ) ;
#106 = COORDINATED_UNIVERSAL_TIME_OFFSET ( 1, 0, .AHEAD. ) ;
#107 = AXIS2_PLACEMENT_3D ( 'NONE', #171, #248, #211 ) ;
#108 = APPROVAL_STATUS ( 'not_yet_approved' ) ;
#109 = VERTEX_POINT ( 'NONE', #215 ) ;
#110 = ADVANCED_FACE ( 'NONE', ( #241 ), #235, .T. ) ;
#111 = VERTEX_POINT ( 'NONE', #194 ) ;
#112 = ORIENTED_EDGE ( 'NONE', *, *, #80, .F. ) ;
#113 = LINE ( 'NONE', #192, #247 ) ;
#114 = AXIS2_PLACEMENT_3D ( 'NONE', #23, #121, #237 ) ;
#115 = ORIENTED_EDGE ( 'NONE', *, *, #99, .F. ) ;
#116 = DIRECTION ( 'NONE',  ( -0.000000000000000000, -0.000000000000000000, -1.000000000000000000 ) ) ;
#117 = DIRECTION ( 'NONE',  ( 0.000000000000000000, 0.000000000000000000, 1.000000000000000000 ) ) ;
#118 = CLOSED_SHELL ( 'NONE', ( #20, #110, #2, #238, #94, #15, #167 ) ) ;
#119 = CARTESIAN_POINT ( 'NONE',  ( -4.000000000000000000, 0.000000000000000000, 0.000000000000000000 ) ) ;
#120 = EDGE_CURVE ( 'NONE', #111, #109, #31, .T. ) ;
#121 = DIRECTION ( 'NONE',  ( 0.000000000000000000, 0.000000000000000000, 1.000000000000000000 ) ) ;
#122 = PERSON_AND_ORGANIZATION_ROLE ( 'creator' ) ;
#123 = COORDINATED_UNIVERSAL_TIME_OFFSET ( 1, 0, .AHEAD. ) ;
#124 = VECTOR ( 'NONE', #218, 1000.000000000000000 ) ;
#125 = ORIENTED_EDGE ( 'NONE', *, *, #221, .F. ) ;
#126 = PRODUCT ( '4d91', '4d91', '', ( #86 ) ) ;
#127 = COORDINATED_UNIVERSAL_TIME_OFFSET ( 1, 0, .AHEAD. ) ;
#128 = EDGE_LOOP ( 'NONE', ( #146, #136, #91, #88 ) ) ;
#129 = APPLICATION_CONTEXT ( 'configuration controlled 3d designs of mechanical parts and assemblies' ) ;
#130 = DATE_AND_TIME ( #200, #180 ) ;
#131 = PRODUCT_DEFINITION_FORMATION_WITH_SPECIFIED_SOURCE ( 'LIBOVOLNÝ', '', #126, .NOT_KNOWN. ) ;
#132 = ORIENTED_EDGE ( 'NONE', *, *, #42, .F. ) ;
#133 = ORIENTED_EDGE ( 'NONE', *, *, #153, .F. ) ;
#134 = AXIS2_PLACEMENT_3D ( 'NONE', #135, #70, #75 ) ;
#135 = CARTESIAN_POINT ( 'NONE',  ( 0.000000000000000000, 0.000000000000000000, 4.000000000000000000 ) ) ;
#136 = ORIENTED_EDGE ( 'NONE', *, *, #102, .F. ) ;
#137 = DIRECTION ( 'NONE',  ( 1.000000000000000000, 0.000000000000000000, -0.000000000000000000 ) ) ;
#138 = PLANE ( 'NONE',  #61 ) ;
#139 = DIRECTION ( 'NONE',  ( 1.000000000000000000, 0.000000000000000000, 0.000000000000000000 ) ) ;
#140 = DIRECTION ( 'NONE',  ( -1.000000000000000000, 0.000000000000000000, 0.000000000000000000 ) ) ;
#141 = MANIFOLD_SOLID_BREP ( 'Pøidat vysunutím3', #118 ) ;
#142 = DIRECTION ( 'NONE',  ( 0.000000000000000000, 0.000000000000000000, 1.000000000000000000 ) ) ;
#143 = SHAPE_DEFINITION_REPRESENTATION ( #68, #29 ) ;
#144 = CIRCLE ( 'NONE', #107, 4.000000000000000000 ) ;
#145 = DATE_AND_TIME ( #225, #219 ) ;
#146 = ORIENTED_EDGE ( 'NONE', *, *, #87, .F. ) ;
#147 = CIRCLE ( 'NONE', #134, 2.000000000000000000 ) ;
#148 = DIRECTION ( 'NONE',  ( 0.000000000000000000, 0.000000000000000000, 1.000000000000000000 ) ) ;
#149 = CC_DESIGN_PERSON_AND_ORGANIZATION_ASSIGNMENT ( #164, #100, ( #131 ) ) ;
#150 = CYLINDRICAL_SURFACE ( 'NONE', #50, 2.000000000000000000 ) ;
#151 = ORIENTED_EDGE ( 'NONE', *, *, #11, .T. ) ;
#152 = CC_DESIGN_APPROVAL ( #38, ( #197 ) ) ;
#153 = EDGE_CURVE ( 'NONE', #184, #49, #22, .T. ) ;
#154 = CARTESIAN_POINT ( 'NONE',  ( 0.000000000000000000, 0.000000000000000000, 800.0000000000000000 ) ) ;
#155 = DIRECTION ( 'NONE',  ( -0.000000000000000000, -0.000000000000000000, -1.000000000000000000 ) ) ;
#156 = CARTESIAN_POINT ( 'NONE',  ( 0.000000000000000000, 0.000000000000000000, 0.000000000000000000 ) ) ;
#157 = AXIS2_PLACEMENT_3D ( 'NONE', #175, #117, #60 ) ;
#158 = CARTESIAN_POINT ( 'NONE',  ( 0.000000000000000000, 0.000000000000000000, 4.000000000000000000 ) ) ;
#159 = DIRECTION ( 'NONE',  ( 0.000000000000000000, 0.000000000000000000, 1.000000000000000000 ) ) ;
#160 = CC_DESIGN_APPROVAL ( #205, ( #57 ) ) ;
#161 = DIRECTION ( 'NONE',  ( -0.000000000000000000, -0.000000000000000000, -1.000000000000000000 ) ) ;
#162 = CIRCLE ( 'NONE', #74, 4.000000000000000000 ) ;
#163 = DATE_TIME_ROLE ( 'creation_date' ) ;
#164 = PERSON_AND_ORGANIZATION ( #21, #6 ) ;
#165 = DATE_AND_TIME ( #3, #83 ) ;
#166 = UNCERTAINTY_MEASURE_WITH_UNIT (LENGTH_MEASURE( 1.000000000000000082E-05 ), #193, 'distance_accuracy_value', 'NONE');
#167 = ADVANCED_FACE ( 'NONE', ( #1 ), #95, .T. ) ;
#168 = CARTESIAN_POINT ( 'NONE',  ( 0.000000000000000000, 0.000000000000000000, 4.000000000000000000 ) ) ;
#169 = CIRCLE ( 'NONE', #44, 2.000000000000000000 ) ;
#170 = VERTEX_POINT ( 'NONE', #56 ) ;
#171 = CARTESIAN_POINT ( 'NONE',  ( 0.000000000000000000, 0.000000000000000000, 0.000000000000000000 ) ) ;
#172 = CYLINDRICAL_SURFACE ( 'NONE', #222, 4.000000000000000000 ) ;
#173 = CIRCLE ( 'NONE', #157, 4.000000000000000000 ) ;
#174 = EDGE_LOOP ( 'NONE', ( #209, #132 ) ) ;
#175 = CARTESIAN_POINT ( 'NONE',  ( 0.000000000000000000, 0.000000000000000000, 4.000000000000000000 ) ) ;
#176 = CC_DESIGN_APPROVAL ( #253, ( #131 ) ) ;
#177 = CARTESIAN_POINT ( 'NONE',  ( 0.000000000000000000, 0.000000000000000000, 4.000000000000000000 ) ) ;
#178 = CC_DESIGN_DATE_AND_TIME_ASSIGNMENT ( #244, #163, ( #197 ) ) ;
#179 =( NAMED_UNIT ( * ) SI_UNIT ( $, .STERADIAN. ) SOLID_ANGLE_UNIT ( ) );
#180 = LOCAL_TIME ( 17, 35, 43.00000000000000000, #123 ) ;
#181 = PERSON_AND_ORGANIZATION ( #21, #6 ) ;
#182 = PERSON_AND_ORGANIZATION_ROLE ( 'design_owner' ) ;
#183 = APPROVAL_ROLE ( '' ) ;
#184 = VERTEX_POINT ( 'NONE', #78 ) ;
#185 = AXIS2_PLACEMENT_3D ( 'NONE', #36, #48, #9 ) ;
#186 = EDGE_CURVE ( 'NONE', #184, #170, #173, .T. ) ;
#187 = CIRCLE ( 'NONE', #101, 2.000000000000000000 ) ;
#188 = EDGE_LOOP ( 'NONE', ( #105, #252 ) ) ;
#189 = CARTESIAN_POINT ( 'NONE',  ( 0.000000000000000000, 0.000000000000000000, 800.0000000000000000 ) ) ;
#190 = ORIENTED_EDGE ( 'NONE', *, *, #213, .F. ) ;
#191 = CC_DESIGN_DATE_AND_TIME_ASSIGNMENT ( #27, #69, ( #57 ) ) ;
#192 = CARTESIAN_POINT ( 'NONE',  ( 2.000000000000000000, 2.449293598294706414E-16, 800.0000000000000000 ) ) ;
#193 =( LENGTH_UNIT ( ) NAMED_UNIT ( * ) SI_UNIT ( .MILLI., .METRE. ) );
#194 = CARTESIAN_POINT ( 'NONE',  ( 2.000000000000000000, 2.449293598294706414E-16, 4.000000000000000000 ) ) ;
#195 = AXIS2_PLACEMENT_3D ( 'NONE', #4, #142, #25 ) ;
#196 = FACE_BOUND ( 'NONE', #188, .T. ) ;
#197 = PRODUCT_DEFINITION ( 'NEZNÁMÝ', '', #131, #206 ) ;
#198 = APPROVAL_STATUS ( 'not_yet_approved' ) ;
#199 = PERSON_AND_ORGANIZATION ( #21, #6 ) ;
#200 = CALENDAR_DATE ( 2023, 13, 2 ) ;
#201 = LOCAL_TIME ( 17, 35, 43.00000000000000000, #7 ) ;
#202 = APPLICATION_PROTOCOL_DEFINITION ( 'international standard', 'config_control_design', 1994, #129 ) ;
#203 = CALENDAR_DATE ( 2023, 13, 2 ) ;
#204 =( GEOMETRIC_REPRESENTATION_CONTEXT ( 3 ) GLOBAL_UNCERTAINTY_ASSIGNED_CONTEXT ( ( #166 ) ) GLOBAL_UNIT_ASSIGNED_CONTEXT ( ( #193, #96, #179 ) ) REPRESENTATION_CONTEXT ( 'NONE', 'WORKASPACE' ) );
#205 = APPROVAL ( #104, 'NEURÈENÝ' ) ;
#206 = DESIGN_CONTEXT ( 'detailed design', #129, 'design' ) ;
#207 = CARTESIAN_POINT ( 'NONE',  ( 0.000000000000000000, 0.000000000000000000, 0.000000000000000000 ) ) ;
#208 = VECTOR ( 'NONE', #116, 1000.000000000000000 ) ;
#209 = ORIENTED_EDGE ( 'NONE', *, *, #11, .F. ) ;
#210 = ORIENTED_EDGE ( 'NONE', *, *, #153, .T. ) ;
#211 = DIRECTION ( 'NONE',  ( 1.000000000000000000, 0.000000000000000000, 0.000000000000000000 ) ) ;
#212 = CYLINDRICAL_SURFACE ( 'NONE', #185, 2.000000000000000000 ) ;
#213 = EDGE_CURVE ( 'NONE', #66, #109, #98, .T. ) ;
#214 = DIRECTION ( 'NONE',  ( -0.000000000000000000, -0.000000000000000000, -1.000000000000000000 ) ) ;
#215 = CARTESIAN_POINT ( 'NONE',  ( -2.000000000000000000, 0.000000000000000000, 4.000000000000000000 ) ) ;
#216 = CARTESIAN_POINT ( 'NONE',  ( -4.000000000000000000, 0.000000000000000000, 4.000000000000000000 ) ) ;
#217 = DIRECTION ( 'NONE',  ( 0.000000000000000000, 0.000000000000000000, 1.000000000000000000 ) ) ;
#218 = DIRECTION ( 'NONE',  ( -0.000000000000000000, -0.000000000000000000, -1.000000000000000000 ) ) ;
#219 = LOCAL_TIME ( 17, 35, 43.00000000000000000, #106 ) ;
#220 = PERSON_AND_ORGANIZATION ( #21, #6 ) ;
#221 = EDGE_CURVE ( 'NONE', #170, #230, #54, .T. ) ;
#222 = AXIS2_PLACEMENT_3D ( 'NONE', #168, #90, #249 ) ;
#223 = PERSON_AND_ORGANIZATION ( #21, #6 ) ;
#224 = ORIENTED_EDGE ( 'NONE', *, *, #221, .T. ) ;
#225 = CALENDAR_DATE ( 2023, 13, 2 ) ;
#226 = PERSON_AND_ORGANIZATION ( #21, #6 ) ;
#227 = CIRCLE ( 'NONE', #10, 4.000000000000000000 ) ;
#228 = FACE_OUTER_BOUND ( 'NONE', #32, .T. ) ;
#229 = APPROVAL_PERSON_ORGANIZATION ( #63, #205, #183 ) ;
#230 = VERTEX_POINT ( 'NONE', #119 ) ;
#231 = CC_DESIGN_PERSON_AND_ORGANIZATION_ASSIGNMENT ( #181, #8, ( #131 ) ) ;
#232 = DIRECTION ( 'NONE',  ( 1.000000000000000000, 0.000000000000000000, 0.000000000000000000 ) ) ;
#233 = VERTEX_POINT ( 'NONE', #18 ) ;
#234 = DIRECTION ( 'NONE',  ( 0.000000000000000000, 0.000000000000000000, 1.000000000000000000 ) ) ;
#235 = CYLINDRICAL_SURFACE ( 'NONE', #65, 4.000000000000000000 ) ;
#236 = CARTESIAN_POINT ( 'NONE',  ( 4.000000000000000000, 4.898587196589412829E-16, 4.000000000000000000 ) ) ;
#237 = DIRECTION ( 'NONE',  ( 1.000000000000000000, 0.000000000000000000, -0.000000000000000000 ) ) ;
#238 = ADVANCED_FACE ( 'NONE', ( #196, #62 ), #138, .T. ) ;
#239 = DIRECTION ( 'NONE',  ( 0.000000000000000000, 0.000000000000000000, 1.000000000000000000 ) ) ;
#240 = LOCAL_TIME ( 17, 35, 43.00000000000000000, #127 ) ;
#241 = FACE_OUTER_BOUND ( 'NONE', #71, .T. ) ;
#242 = CALENDAR_DATE ( 2023, 13, 2 ) ;
#243 = APPROVAL_DATE_TIME ( #130, #253 ) ;
#244 = DATE_AND_TIME ( #242, #240 ) ;
#245 = PERSON_AND_ORGANIZATION ( #21, #6 ) ;
#246 = ORIENTED_EDGE ( 'NONE', *, *, #186, .F. ) ;
#247 = VECTOR ( 'NONE', #93, 1000.000000000000000 ) ;
#248 = DIRECTION ( 'NONE',  ( 0.000000000000000000, 0.000000000000000000, 1.000000000000000000 ) ) ;
#249 = DIRECTION ( 'NONE',  ( -1.000000000000000000, 0.000000000000000000, 0.000000000000000000 ) ) ;
#250 = PRODUCT_RELATED_PRODUCT_CATEGORY ( 'detail', '', ( #126 ) ) ;
#251 = CARTESIAN_POINT ( 'NONE',  ( 4.000000000000000000, 4.898587196589412829E-16, 0.000000000000000000 ) ) ;
#252 = ORIENTED_EDGE ( 'NONE', *, *, #120, .F. ) ;
#253 = APPROVAL ( #108, 'NEURÈENÝ' ) ;
#254 = ORIENTED_EDGE ( 'NONE', *, *, #87, .T. ) ;
#255 = CARTESIAN_POINT ( 'NONE',  ( 0.000000000000000000, 0.000000000000000000, 800.0000000000000000 ) ) ;
ENDSEC;
END-ISO-10303-21;
