ISO-10303-21;
HEADER;
FILE_DESCRIPTION (( 'STEP AP203' ),
    '1' );
FILE_NAME ('2ed6.STEP',
    '2023-02-13T17:27:49',
    ( '' ),
    ( '' ),
    'SwSTEP 2.0',
    'SolidWorks 2019',
    '' );
FILE_SCHEMA (( 'CONFIG_CONTROL_DESIGN' ));
ENDSEC;

DATA;
#1 =( LENGTH_UNIT ( ) NAMED_UNIT ( * ) SI_UNIT ( .MILLI., .METRE. ) );
#2 = AXIS2_PLACEMENT_3D ( 'NONE', #21, #77, #43 ) ;
#3 = APPLICATION_PROTOCOL_DEFINITION ( 'international standard', 'config_control_design', 1994, #27 ) ;
#4 = ADVANCED_FACE ( 'NONE', ( #89 ), #133, .T. ) ;
#5 = CIRCLE ( 'NONE', #67, 1.250000000000000000 ) ;
#6 = APPROVAL_ROLE ( '' ) ;
#7 = LOCAL_TIME ( 18, 27, 49.00000000000000000, #25 ) ;
#8 = ORIENTED_EDGE ( 'NONE', *, *, #128, .F. ) ;
#9 = DIRECTION ( 'NONE',  ( 1.000000000000000000, 0.000000000000000000, 0.000000000000000000 ) ) ;
#10 = CARTESIAN_POINT ( 'NONE',  ( 0.5500000000000000444, 6.735557395310442516E-17, 1.199999999999999956 ) ) ;
#11 = AXIS2_PLACEMENT_3D ( 'NONE', #116, #149, #210 ) ;
#12 = DATE_TIME_ROLE ( 'classification_date' ) ;
#13 = DIRECTION ( 'NONE',  ( 0.000000000000000000, 0.000000000000000000, 1.000000000000000000 ) ) ;
#14 = APPROVAL ( #88, 'NEURÈENÝ' ) ;
#15 = DIRECTION ( 'NONE',  ( -0.000000000000000000, -0.000000000000000000, -1.000000000000000000 ) ) ;
#16 = FACE_OUTER_BOUND ( 'NONE', #137, .T. ) ;
#17 = DIRECTION ( 'NONE',  ( 1.000000000000000000, 0.000000000000000000, 0.000000000000000000 ) ) ;
#18 = VECTOR ( 'NONE', #52, 1000.000000000000000 ) ;
#19 = DIRECTION ( 'NONE',  ( -0.000000000000000000, -0.000000000000000000, -1.000000000000000000 ) ) ;
#20 = ORIENTED_EDGE ( 'NONE', *, *, #42, .T. ) ;
#21 = CARTESIAN_POINT ( 'NONE',  ( 0.000000000000000000, 0.000000000000000000, 1.199999999999999956 ) ) ;
#22 = FACE_BOUND ( 'NONE', #44, .T. ) ;
#23 = CIRCLE ( 'NONE', #124, 1.250000000000000000 ) ;
#24 = APPROVAL_PERSON_ORGANIZATION ( #95, #14, #30 ) ;
#25 = COORDINATED_UNIVERSAL_TIME_OFFSET ( 1, 0, .AHEAD. ) ;
#26 = CC_DESIGN_PERSON_AND_ORGANIZATION_ASSIGNMENT ( #142, #204, ( #125 ) ) ;
#27 = APPLICATION_CONTEXT ( 'configuration controlled 3d designs of mechanical parts and assemblies' ) ;
#28 = APPROVAL_STATUS ( 'not_yet_approved' ) ;
#29 = LOCAL_TIME ( 18, 27, 49.00000000000000000, #194 ) ;
#30 = APPROVAL_ROLE ( '' ) ;
#31 = CIRCLE ( 'NONE', #11, 0.5500000000000000444 ) ;
#32 = COORDINATED_UNIVERSAL_TIME_OFFSET ( 1, 0, .AHEAD. ) ;
#33 = CARTESIAN_POINT ( 'NONE',  ( -0.5500000000000000444, 0.000000000000000000, 1.199999999999999956 ) ) ;
#34 = PERSON ( 'NEURÈENÝ', 'NEURÈENÝ', 'NEURÈENÝ', ('NEURÈENÝ'), ('NEURÈENÝ'), ('NEURÈENÝ') ) ;
#35 = DIRECTION ( 'NONE',  ( -1.000000000000000000, 0.000000000000000000, 0.000000000000000000 ) ) ;
#36 = EDGE_CURVE ( 'NONE', #157, #196, #23, .T. ) ;
#37 = LINE ( 'NONE', #91, #178 ) ;
#38 = APPROVAL_PERSON_ORGANIZATION ( #186, #182, #62 ) ;
#39 = CARTESIAN_POINT ( 'NONE',  ( 0.000000000000000000, 0.000000000000000000, 125.0000000000000000 ) ) ;
#40 = EDGE_LOOP ( 'NONE', ( #214, #170, #246, #181 ) ) ;
#41 = CARTESIAN_POINT ( 'NONE',  ( 0.000000000000000000, 0.000000000000000000, 125.0000000000000000 ) ) ;
#42 = EDGE_CURVE ( 'NONE', #151, #255, #31, .T. ) ;
#43 = DIRECTION ( 'NONE',  ( 1.000000000000000000, 0.000000000000000000, -0.000000000000000000 ) ) ;
#44 = EDGE_LOOP ( 'NONE', ( #79, #135 ) ) ;
#45 =( NAMED_UNIT ( * ) SI_UNIT ( $, .STERADIAN. ) SOLID_ANGLE_UNIT ( ) );
#46 = DIRECTION ( 'NONE',  ( -0.000000000000000000, -0.000000000000000000, -1.000000000000000000 ) ) ;
#47 = CARTESIAN_POINT ( 'NONE',  ( 0.000000000000000000, 0.000000000000000000, 125.0000000000000000 ) ) ;
#48 = EDGE_CURVE ( 'NONE', #226, #59, #5, .T. ) ;
#49 = APPROVAL_DATE_TIME ( #126, #182 ) ;
#50 = APPLICATION_CONTEXT ( 'configuration controlled 3d designs of mechanical parts and assemblies' ) ;
#51 = CIRCLE ( 'NONE', #187, 1.250000000000000000 ) ;
#52 = DIRECTION ( 'NONE',  ( -0.000000000000000000, -0.000000000000000000, -1.000000000000000000 ) ) ;
#53 = CARTESIAN_POINT ( 'NONE',  ( -1.250000000000000000, 0.000000000000000000, 1.199999999999999956 ) ) ;
#54 = CARTESIAN_POINT ( 'NONE',  ( 1.250000000000000000, 1.530808498934191571E-16, 1.199999999999999956 ) ) ;
#55 = DIRECTION ( 'NONE',  ( 1.000000000000000000, 0.000000000000000000, 0.000000000000000000 ) ) ;
#56 = ORIENTED_EDGE ( 'NONE', *, *, #99, .T. ) ;
#57 = CARTESIAN_POINT ( 'NONE',  ( 0.000000000000000000, 0.000000000000000000, 125.0000000000000000 ) ) ;
#58 = ORIENTED_EDGE ( 'NONE', *, *, #48, .T. ) ;
#59 = VERTEX_POINT ( 'NONE', #70 ) ;
#60 = PRODUCT_DEFINITION ( 'NEZNÁMÝ', '', #212, #248 ) ;
#61 = DIRECTION ( 'NONE',  ( -1.000000000000000000, 0.000000000000000000, 0.000000000000000000 ) ) ;
#62 = APPROVAL_ROLE ( '' ) ;
#63 = CIRCLE ( 'NONE', #85, 0.5500000000000000444 ) ;
#64 = DATE_TIME_ROLE ( 'creation_date' ) ;
#65 = SECURITY_CLASSIFICATION_LEVEL ( 'unclassified' ) ;
#66 = ADVANCED_BREP_SHAPE_REPRESENTATION ( '2ed6', ( #153, #188 ), #217 ) ;
#67 = AXIS2_PLACEMENT_3D ( 'NONE', #111, #13, #9 ) ;
#68 = LOCAL_TIME ( 18, 27, 49.00000000000000000, #84 ) ;
#69 = CC_DESIGN_PERSON_AND_ORGANIZATION_ASSIGNMENT ( #240, #166, ( #212 ) ) ;
#70 = CARTESIAN_POINT ( 'NONE',  ( -1.250000000000000000, 0.000000000000000000, 1.199999999999999956 ) ) ;
#71 = FACE_OUTER_BOUND ( 'NONE', #118, .T. ) ;
#72 = AXIS2_PLACEMENT_3D ( 'NONE', #209, #15, #35 ) ;
#73 = ORIENTED_EDGE ( 'NONE', *, *, #189, .T. ) ;
#74 = CALENDAR_DATE ( 2023, 13, 2 ) ;
#75 = CARTESIAN_POINT ( 'NONE',  ( 0.000000000000000000, 0.000000000000000000, 1.199999999999999956 ) ) ;
#76 = DIRECTION ( 'NONE',  ( 0.000000000000000000, 0.000000000000000000, 1.000000000000000000 ) ) ;
#77 = DIRECTION ( 'NONE',  ( 0.000000000000000000, 0.000000000000000000, 1.000000000000000000 ) ) ;
#78 = CYLINDRICAL_SURFACE ( 'NONE', #94, 0.5500000000000000444 ) ;
#79 = ORIENTED_EDGE ( 'NONE', *, *, #146, .F. ) ;
#80 = AXIS2_PLACEMENT_3D ( 'NONE', #41, #105, #17 ) ;
#81 = CARTESIAN_POINT ( 'NONE',  ( 0.000000000000000000, 0.000000000000000000, 0.000000000000000000 ) ) ;
#82 = APPROVAL ( #28, 'NEURÈENÝ' ) ;
#83 = CARTESIAN_POINT ( 'NONE',  ( -1.250000000000000000, 0.000000000000000000, 0.000000000000000000 ) ) ;
#84 = COORDINATED_UNIVERSAL_TIME_OFFSET ( 1, 0, .AHEAD. ) ;
#85 = AXIS2_PLACEMENT_3D ( 'NONE', #173, #193, #96 ) ;
#86 = DATE_AND_TIME ( #202, #7 ) ;
#87 = AXIS2_PLACEMENT_3D ( 'NONE', #236, #119, #235 ) ;
#88 = APPROVAL_STATUS ( 'not_yet_approved' ) ;
#89 = FACE_OUTER_BOUND ( 'NONE', #253, .T. ) ;
#90 = SHAPE_DEFINITION_REPRESENTATION ( #131, #66 ) ;
#91 = CARTESIAN_POINT ( 'NONE',  ( -0.5500000000000000444, 0.000000000000000000, 125.0000000000000000 ) ) ;
#92 = EDGE_CURVE ( 'NONE', #226, #157, #228, .T. ) ;
#93 = DIRECTION ( 'NONE',  ( 1.000000000000000000, 0.000000000000000000, -0.000000000000000000 ) ) ;
#94 = AXIS2_PLACEMENT_3D ( 'NONE', #57, #19, #156 ) ;
#95 = PERSON_AND_ORGANIZATION ( #34, #110 ) ;
#96 = DIRECTION ( 'NONE',  ( 1.000000000000000000, 0.000000000000000000, 0.000000000000000000 ) ) ;
#97 = DATE_AND_TIME ( #242, #29 ) ;
#98 = DIRECTION ( 'NONE',  ( 1.000000000000000000, 0.000000000000000000, -0.000000000000000000 ) ) ;
#99 = EDGE_CURVE ( 'NONE', #59, #196, #191, .T. ) ;
#100 = ORIENTED_EDGE ( 'NONE', *, *, #128, .T. ) ;
#101 = PLANE ( 'NONE',  #2 ) ;
#102 = DIRECTION ( 'NONE',  ( 0.000000000000000000, 0.000000000000000000, 1.000000000000000000 ) ) ;
#103 = VERTEX_POINT ( 'NONE', #10 ) ;
#104 = AXIS2_PLACEMENT_3D ( 'NONE', #200, #162, #61 ) ;
#105 = DIRECTION ( 'NONE',  ( 0.000000000000000000, 0.000000000000000000, 1.000000000000000000 ) ) ;
#106 = CALENDAR_DATE ( 2023, 13, 2 ) ;
#107 = ADVANCED_FACE ( 'NONE', ( #195 ), #132, .T. ) ;
#108 = AXIS2_PLACEMENT_3D ( 'NONE', #147, #192, #93 ) ;
#109 = CC_DESIGN_SECURITY_CLASSIFICATION ( #125, ( #212 ) ) ;
#110 = ORGANIZATION ( 'NEURÈENÝ', 'NEURÈENÝ', '' ) ;
#111 = CARTESIAN_POINT ( 'NONE',  ( 0.000000000000000000, 0.000000000000000000, 1.199999999999999956 ) ) ;
#112 = VERTEX_POINT ( 'NONE', #33 ) ;
#113 = PLANE ( 'NONE',  #108 ) ;
#114 = AXIS2_PLACEMENT_3D ( 'NONE', #136, #102, #183 ) ;
#115 = LINE ( 'NONE', #117, #169 ) ;
#116 = CARTESIAN_POINT ( 'NONE',  ( 0.000000000000000000, 0.000000000000000000, 125.0000000000000000 ) ) ;
#117 = CARTESIAN_POINT ( 'NONE',  ( 0.5500000000000000444, 6.735557395310442516E-17, 125.0000000000000000 ) ) ;
#118 = EDGE_LOOP ( 'NONE', ( #233, #213 ) ) ;
#119 = DIRECTION ( 'NONE',  ( 0.000000000000000000, 0.000000000000000000, 1.000000000000000000 ) ) ;
#120 = PERSON_AND_ORGANIZATION_ROLE ( 'design_owner' ) ;
#121 = APPROVAL_DATE_TIME ( #237, #82 ) ;
#122 = CC_DESIGN_PERSON_AND_ORGANIZATION_ASSIGNMENT ( #215, #120, ( #160 ) ) ;
#123 = PERSON_AND_ORGANIZATION_ROLE ( 'design_supplier' ) ;
#124 = AXIS2_PLACEMENT_3D ( 'NONE', #249, #76, #243 ) ;
#125 = SECURITY_CLASSIFICATION ( '', '', #65 ) ;
#126 = DATE_AND_TIME ( #218, #152 ) ;
#127 = DIRECTION ( 'NONE',  ( -0.000000000000000000, -0.000000000000000000, -1.000000000000000000 ) ) ;
#128 = EDGE_CURVE ( 'NONE', #255, #112, #37, .T. ) ;
#129 = CC_DESIGN_APPROVAL ( #14, ( #125 ) ) ;
#130 = ORIENTED_EDGE ( 'NONE', *, *, #92, .F. ) ;
#131 = PRODUCT_DEFINITION_SHAPE ( 'NONE', 'NONE',  #60 ) ;
#132 = PLANE ( 'NONE',  #159 ) ;
#133 = CYLINDRICAL_SURFACE ( 'NONE', #72, 1.250000000000000000 ) ;
#134 = CC_DESIGN_APPROVAL ( #82, ( #60 ) ) ;
#135 = ORIENTED_EDGE ( 'NONE', *, *, #189, .F. ) ;
#136 = CARTESIAN_POINT ( 'NONE',  ( 0.000000000000000000, 0.000000000000000000, 1.199999999999999956 ) ) ;
#137 = EDGE_LOOP ( 'NONE', ( #234, #206, #73, #8 ) ) ;
#138 = APPROVAL_PERSON_ORGANIZATION ( #221, #82, #6 ) ;
#139 =( NAMED_UNIT ( * ) PLANE_ANGLE_UNIT ( ) SI_UNIT ( $, .RADIAN. ) );
#140 = CC_DESIGN_PERSON_AND_ORGANIZATION_ASSIGNMENT ( #141, #168, ( #60 ) ) ;
#141 = PERSON_AND_ORGANIZATION ( #34, #110 ) ;
#142 = PERSON_AND_ORGANIZATION ( #34, #110 ) ;
#143 = ADVANCED_FACE ( 'NONE', ( #71 ), #113, .F. ) ;
#144 = APPLICATION_PROTOCOL_DEFINITION ( 'international standard', 'config_control_design', 1994, #50 ) ;
#145 = EDGE_LOOP ( 'NONE', ( #250, #20 ) ) ;
#146 = EDGE_CURVE ( 'NONE', #112, #103, #63, .T. ) ;
#147 = CARTESIAN_POINT ( 'NONE',  ( 0.000000000000000000, 0.000000000000000000, 0.000000000000000000 ) ) ;
#148 = CLOSED_SHELL ( 'NONE', ( #241, #216, #4, #207, #143, #245, #107 ) ) ;
#149 = DIRECTION ( 'NONE',  ( 0.000000000000000000, 0.000000000000000000, 1.000000000000000000 ) ) ;
#150 = DIRECTION ( 'NONE',  ( 0.000000000000000000, 0.000000000000000000, 1.000000000000000000 ) ) ;
#151 = VERTEX_POINT ( 'NONE', #174 ) ;
#152 = LOCAL_TIME ( 18, 27, 49.00000000000000000, #239 ) ;
#153 = MANIFOLD_SOLID_BREP ( 'Pøidat vysunutím3', #148 ) ;
#154 = DIRECTION ( 'NONE',  ( -1.000000000000000000, 0.000000000000000000, 0.000000000000000000 ) ) ;
#155 = ORIENTED_EDGE ( 'NONE', *, *, #163, .T. ) ;
#156 = DIRECTION ( 'NONE',  ( -1.000000000000000000, 0.000000000000000000, 0.000000000000000000 ) ) ;
#157 = VERTEX_POINT ( 'NONE', #247 ) ;
#158 = FACE_OUTER_BOUND ( 'NONE', #172, .T. ) ;
#159 = AXIS2_PLACEMENT_3D ( 'NONE', #39, #205, #98 ) ;
#160 = PRODUCT ( '2ed6', '2ed6', '', ( #251 ) ) ;
#161 = DIRECTION ( 'NONE',  ( 0.000000000000000000, 0.000000000000000000, 1.000000000000000000 ) ) ;
#162 = DIRECTION ( 'NONE',  ( -0.000000000000000000, -0.000000000000000000, -1.000000000000000000 ) ) ;
#163 = EDGE_CURVE ( 'NONE', #59, #226, #51, .T. ) ;
#164 = EDGE_CURVE ( 'NONE', #151, #103, #115, .T. ) ;
#165 = VECTOR ( 'NONE', #127, 1000.000000000000000 ) ;
#166 = PERSON_AND_ORGANIZATION_ROLE ( 'creator' ) ;
#167 = APPROVAL_STATUS ( 'not_yet_approved' ) ;
#168 = PERSON_AND_ORGANIZATION_ROLE ( 'creator' ) ;
#169 = VECTOR ( 'NONE', #197, 1000.000000000000000 ) ;
#170 = ORIENTED_EDGE ( 'NONE', *, *, #92, .T. ) ;
#171 = DATE_AND_TIME ( #74, #230 ) ;
#172 = EDGE_LOOP ( 'NONE', ( #155, #58 ) ) ;
#173 = CARTESIAN_POINT ( 'NONE',  ( 0.000000000000000000, 0.000000000000000000, 1.199999999999999956 ) ) ;
#174 = CARTESIAN_POINT ( 'NONE',  ( 0.5500000000000000444, 6.735557395310442516E-17, 125.0000000000000000 ) ) ;
#175 = ORIENTED_EDGE ( 'NONE', *, *, #163, .F. ) ;
#176 = ORIENTED_EDGE ( 'NONE', *, *, #222, .T. ) ;
#177 = DIRECTION ( 'NONE',  ( 1.000000000000000000, 0.000000000000000000, 0.000000000000000000 ) ) ;
#178 = VECTOR ( 'NONE', #244, 1000.000000000000000 ) ;
#179 = EDGE_CURVE ( 'NONE', #255, #151, #224, .T. ) ;
#180 = CYLINDRICAL_SURFACE ( 'NONE', #104, 1.250000000000000000 ) ;
#181 = ORIENTED_EDGE ( 'NONE', *, *, #99, .F. ) ;
#182 = APPROVAL ( #167, 'NEURÈENÝ' ) ;
#183 = DIRECTION ( 'NONE',  ( 1.000000000000000000, 0.000000000000000000, 0.000000000000000000 ) ) ;
#184 = CARTESIAN_POINT ( 'NONE',  ( -0.5500000000000000444, 0.000000000000000000, 125.0000000000000000 ) ) ;
#185 = CC_DESIGN_PERSON_AND_ORGANIZATION_ASSIGNMENT ( #203, #123, ( #212 ) ) ;
#186 = PERSON_AND_ORGANIZATION ( #34, #110 ) ;
#187 = AXIS2_PLACEMENT_3D ( 'NONE', #75, #150, #55 ) ;
#188 = AXIS2_PLACEMENT_3D ( 'NONE', #81, #161, #177 ) ;
#189 = EDGE_CURVE ( 'NONE', #103, #112, #219, .T. ) ;
#190 = APPROVAL_DATE_TIME ( #97, #14 ) ;
#191 = LINE ( 'NONE', #53, #165 ) ;
#192 = DIRECTION ( 'NONE',  ( 0.000000000000000000, 0.000000000000000000, 1.000000000000000000 ) ) ;
#193 = DIRECTION ( 'NONE',  ( 0.000000000000000000, 0.000000000000000000, 1.000000000000000000 ) ) ;
#194 = COORDINATED_UNIVERSAL_TIME_OFFSET ( 1, 0, .AHEAD. ) ;
#195 = FACE_OUTER_BOUND ( 'NONE', #145, .T. ) ;
#196 = VERTEX_POINT ( 'NONE', #83 ) ;
#197 = DIRECTION ( 'NONE',  ( -0.000000000000000000, -0.000000000000000000, -1.000000000000000000 ) ) ;
#198 = EDGE_LOOP ( 'NONE', ( #225, #223, #100, #229 ) ) ;
#199 = CARTESIAN_POINT ( 'NONE',  ( 1.250000000000000000, 1.530808498934191571E-16, 1.199999999999999956 ) ) ;
#200 = CARTESIAN_POINT ( 'NONE',  ( 0.000000000000000000, 0.000000000000000000, 1.199999999999999956 ) ) ;
#201 = FACE_OUTER_BOUND ( 'NONE', #198, .T. ) ;
#202 = CALENDAR_DATE ( 2023, 13, 2 ) ;
#203 = PERSON_AND_ORGANIZATION ( #34, #110 ) ;
#204 = PERSON_AND_ORGANIZATION_ROLE ( 'classification_officer' ) ;
#205 = DIRECTION ( 'NONE',  ( 0.000000000000000000, 0.000000000000000000, 1.000000000000000000 ) ) ;
#206 = ORIENTED_EDGE ( 'NONE', *, *, #164, .T. ) ;
#207 = ADVANCED_FACE ( 'NONE', ( #22, #158 ), #101, .T. ) ;
#208 = UNCERTAINTY_MEASURE_WITH_UNIT (LENGTH_MEASURE( 1.000000000000000082E-05 ), #1, 'distance_accuracy_value', 'NONE');
#209 = CARTESIAN_POINT ( 'NONE',  ( 0.000000000000000000, 0.000000000000000000, 1.199999999999999956 ) ) ;
#210 = DIRECTION ( 'NONE',  ( 1.000000000000000000, 0.000000000000000000, 0.000000000000000000 ) ) ;
#211 = CIRCLE ( 'NONE', #87, 1.250000000000000000 ) ;
#212 = PRODUCT_DEFINITION_FORMATION_WITH_SPECIFIED_SOURCE ( 'LIBOVOLNÝ', '', #160, .NOT_KNOWN. ) ;
#213 = ORIENTED_EDGE ( 'NONE', *, *, #36, .F. ) ;
#214 = ORIENTED_EDGE ( 'NONE', *, *, #48, .F. ) ;
#215 = PERSON_AND_ORGANIZATION ( #34, #110 ) ;
#216 = ADVANCED_FACE ( 'NONE', ( #232 ), #180, .T. ) ;
#217 =( GEOMETRIC_REPRESENTATION_CONTEXT ( 3 ) GLOBAL_UNCERTAINTY_ASSIGNED_CONTEXT ( ( #208 ) ) GLOBAL_UNIT_ASSIGNED_CONTEXT ( ( #1, #139, #45 ) ) REPRESENTATION_CONTEXT ( 'NONE', 'WORKASPACE' ) );
#218 = CALENDAR_DATE ( 2023, 13, 2 ) ;
#219 = CIRCLE ( 'NONE', #114, 0.5500000000000000444 ) ;
#220 = CC_DESIGN_DATE_AND_TIME_ASSIGNMENT ( #86, #64, ( #60 ) ) ;
#221 = PERSON_AND_ORGANIZATION ( #34, #110 ) ;
#222 = EDGE_CURVE ( 'NONE', #196, #157, #211, .T. ) ;
#223 = ORIENTED_EDGE ( 'NONE', *, *, #179, .F. ) ;
#224 = CIRCLE ( 'NONE', #80, 0.5500000000000000444 ) ;
#225 = ORIENTED_EDGE ( 'NONE', *, *, #164, .F. ) ;
#226 = VERTEX_POINT ( 'NONE', #199 ) ;
#227 = CC_DESIGN_DATE_AND_TIME_ASSIGNMENT ( #171, #12, ( #125 ) ) ;
#228 = LINE ( 'NONE', #54, #18 ) ;
#229 = ORIENTED_EDGE ( 'NONE', *, *, #146, .T. ) ;
#230 = LOCAL_TIME ( 18, 27, 49.00000000000000000, #32 ) ;
#231 = PRODUCT_RELATED_PRODUCT_CATEGORY ( 'detail', '', ( #160 ) ) ;
#232 = FACE_OUTER_BOUND ( 'NONE', #40, .T. ) ;
#233 = ORIENTED_EDGE ( 'NONE', *, *, #222, .F. ) ;
#234 = ORIENTED_EDGE ( 'NONE', *, *, #42, .F. ) ;
#235 = DIRECTION ( 'NONE',  ( 1.000000000000000000, 0.000000000000000000, 0.000000000000000000 ) ) ;
#236 = CARTESIAN_POINT ( 'NONE',  ( 0.000000000000000000, 0.000000000000000000, 0.000000000000000000 ) ) ;
#237 = DATE_AND_TIME ( #106, #68 ) ;
#238 = CC_DESIGN_APPROVAL ( #182, ( #212 ) ) ;
#239 = COORDINATED_UNIVERSAL_TIME_OFFSET ( 1, 0, .AHEAD. ) ;
#240 = PERSON_AND_ORGANIZATION ( #34, #110 ) ;
#241 = ADVANCED_FACE ( 'NONE', ( #16 ), #254, .T. ) ;
#242 = CALENDAR_DATE ( 2023, 13, 2 ) ;
#243 = DIRECTION ( 'NONE',  ( 1.000000000000000000, 0.000000000000000000, 0.000000000000000000 ) ) ;
#244 = DIRECTION ( 'NONE',  ( -0.000000000000000000, -0.000000000000000000, -1.000000000000000000 ) ) ;
#245 = ADVANCED_FACE ( 'NONE', ( #201 ), #78, .T. ) ;
#246 = ORIENTED_EDGE ( 'NONE', *, *, #36, .T. ) ;
#247 = CARTESIAN_POINT ( 'NONE',  ( 1.250000000000000000, 1.530808498934191571E-16, 0.000000000000000000 ) ) ;
#248 = DESIGN_CONTEXT ( 'detailed design', #50, 'design' ) ;
#249 = CARTESIAN_POINT ( 'NONE',  ( 0.000000000000000000, 0.000000000000000000, 0.000000000000000000 ) ) ;
#250 = ORIENTED_EDGE ( 'NONE', *, *, #179, .T. ) ;
#251 = MECHANICAL_CONTEXT ( 'NONE', #27, 'mechanical' ) ;
#252 = AXIS2_PLACEMENT_3D ( 'NONE', #47, #46, #154 ) ;
#253 = EDGE_LOOP ( 'NONE', ( #130, #175, #56, #176 ) ) ;
#254 = CYLINDRICAL_SURFACE ( 'NONE', #252, 0.5500000000000000444 ) ;
#255 = VERTEX_POINT ( 'NONE', #184 ) ;
ENDSEC;
END-ISO-10303-21;
