ISO-10303-21;
HEADER;
FILE_DESCRIPTION (( 'STEP AP203' ),
    '1' );
FILE_NAME ('6ed3.STEP',
    '2022-08-30T13:48:22',
    ( '' ),
    ( '' ),
    'SwSTEP 2.0',
    'SolidWorks 2019',
    '' );
FILE_SCHEMA (( 'CONFIG_CONTROL_DESIGN' ));
ENDSEC;

DATA;
#1 = DIRECTION ( 'NONE',  ( 1.000000000000000000, 0.000000000000000000, 0.000000000000000000 ) ) ;
#2 = APPLICATION_CONTEXT ( 'configuration controlled 3d designs of mechanical parts and assemblies' ) ;
#3 = EDGE_CURVE ( 'NONE', #164, #302, #53, .T. ) ;
#4 = DIRECTION ( 'NONE',  ( 0.000000000000000000, 0.000000000000000000, 1.000000000000000000 ) ) ;
#5 = LINE ( 'NONE', #196, #21 ) ;
#6 = VECTOR ( 'NONE', #271, 1000.000000000000000 ) ;
#7 = CIRCLE ( 'NONE', #54, 1.449999999999999956 ) ;
#8 = DIRECTION ( 'NONE',  ( -1.000000000000000000, 0.000000000000000000, 0.000000000000000000 ) ) ;
#9 = EDGE_CURVE ( 'NONE', #232, #275, #176, .T. ) ;
#10 = PERSON_AND_ORGANIZATION ( #293, #95 ) ;
#11 = EDGE_CURVE ( 'NONE', #302, #164, #227, .T. ) ;
#12 = CALENDAR_DATE ( 2022, 30, 8 ) ;
#13 = EDGE_LOOP ( 'NONE', ( #145, #140 ) ) ;
#14 = AXIS2_PLACEMENT_3D ( 'NONE', #45, #305, #141 ) ;
#15 = LOCAL_TIME ( 15, 48, 22.00000000000000000, #228 ) ;
#16 = ORIENTED_EDGE ( 'NONE', *, *, #137, .T. ) ;
#17 = PRODUCT ( '6ed3', '6ed3', '', ( #299 ) ) ;
#18 = ORIENTED_EDGE ( 'NONE', *, *, #212, .T. ) ;
#19 = APPROVAL ( #246, 'NEURÈENÝ' ) ;
#20 = CARTESIAN_POINT ( 'NONE',  ( 0.000000000000000000, 0.000000000000000000, 1.500000000000000000 ) ) ;
#21 = VECTOR ( 'NONE', #238, 1000.000000000000000 ) ;
#22 = CC_DESIGN_APPROVAL ( #19, ( #111 ) ) ;
#23 = CARTESIAN_POINT ( 'NONE',  ( 0.000000000000000000, 0.000000000000000000, 126.5000000000000000 ) ) ;
#24 = ADVANCED_FACE ( 'NONE', ( #185 ), #282, .F. ) ;
#25 = ORIENTED_EDGE ( 'NONE', *, *, #58, .T. ) ;
#26 = CARTESIAN_POINT ( 'NONE',  ( 0.6500000000000000222, 7.960204194457795477E-17, 1.700000000000007061 ) ) ;
#27 = CIRCLE ( 'NONE', #84, 1.449999999999999956 ) ;
#28 = CC_DESIGN_APPROVAL ( #96, ( #131 ) ) ;
#29 = CARTESIAN_POINT ( 'NONE',  ( 0.000000000000000000, 0.000000000000000000, 1.500000000000000000 ) ) ;
#30 = DIRECTION ( 'NONE',  ( -0.000000000000000000, -0.000000000000000000, -1.000000000000000000 ) ) ;
#31 = CARTESIAN_POINT ( 'NONE',  ( 0.000000000000000000, 0.000000000000000000, 1.500000000000000000 ) ) ;
#32 = CARTESIAN_POINT ( 'NONE',  ( 1.449999999999999956, 1.775737858763661916E-16, 0.000000000000000000 ) ) ;
#33 = TOROIDAL_SURFACE ( 'NONE', #263, 0.8499999999999999778, 0.2000000000000000111 ) ;
#34 = ADVANCED_FACE ( 'NONE', ( #46, #234 ), #92, .T. ) ;
#35 = DATE_AND_TIME ( #135, #249 ) ;
#36 = APPLICATION_PROTOCOL_DEFINITION ( 'international standard', 'config_control_design', 1994, #61 ) ;
#37 = ORIENTED_EDGE ( 'NONE', *, *, #47, .T. ) ;
#38 = APPROVAL_STATUS ( 'not_yet_approved' ) ;
#39 = DIRECTION ( 'NONE',  ( 1.000000000000000000, 0.000000000000000000, 0.000000000000000000 ) ) ;
#40 = UNCERTAINTY_MEASURE_WITH_UNIT (LENGTH_MEASURE( 1.000000000000000082E-05 ), #62, 'distance_accuracy_value', 'NONE');
#41 = AXIS2_PLACEMENT_3D ( 'NONE', #97, #163, #254 ) ;
#42 = AXIS2_PLACEMENT_3D ( 'NONE', #50, #213, #118 ) ;
#43 = CC_DESIGN_PERSON_AND_ORGANIZATION_ASSIGNMENT ( #177, #133, ( #17 ) ) ;
#44 = EDGE_LOOP ( 'NONE', ( #136, #279 ) ) ;
#45 = CARTESIAN_POINT ( 'NONE',  ( 0.000000000000000000, 0.000000000000000000, 0.000000000000000000 ) ) ;
#46 = FACE_BOUND ( 'NONE', #142, .T. ) ;
#47 = EDGE_CURVE ( 'NONE', #275, #232, #162, .T. ) ;
#48 = AXIS2_PLACEMENT_3D ( 'NONE', #218, #175, #240 ) ;
#49 = CARTESIAN_POINT ( 'NONE',  ( -0.6500000000000000222, 0.000000000000000000, 126.5000000000000000 ) ) ;
#50 = CARTESIAN_POINT ( 'NONE',  ( 0.000000000000000000, 0.000000000000000000, 1.700000000000007061 ) ) ;
#51 = DIRECTION ( 'NONE',  ( 0.000000000000000000, 0.000000000000000000, 1.000000000000000000 ) ) ;
#52 = PRODUCT_DEFINITION_SHAPE ( 'NONE', 'NONE',  #131 ) ;
#53 = CIRCLE ( 'NONE', #235, 1.449999999999999956 ) ;
#54 = AXIS2_PLACEMENT_3D ( 'NONE', #269, #154, #39 ) ;
#55 = FACE_OUTER_BOUND ( 'NONE', #233, .T. ) ;
#56 = DIRECTION ( 'NONE',  ( 0.000000000000000000, 0.000000000000000000, 1.000000000000000000 ) ) ;
#57 = CYLINDRICAL_SURFACE ( 'NONE', #268, 0.6500000000000000222 ) ;
#58 = EDGE_CURVE ( 'NONE', #302, #208, #188, .T. ) ;
#59 = CARTESIAN_POINT ( 'NONE',  ( 0.6500000000000000222, 7.960204194457795477E-17, 126.5000000000000000 ) ) ;
#60 = CLOSED_SHELL ( 'NONE', ( #239, #186, #158, #178, #34, #24, #260, #153, #86 ) ) ;
#61 = APPLICATION_CONTEXT ( 'configuration controlled 3d designs of mechanical parts and assemblies' ) ;
#62 =( LENGTH_UNIT ( ) NAMED_UNIT ( * ) SI_UNIT ( .MILLI., .METRE. ) );
#63 = EDGE_CURVE ( 'NONE', #89, #203, #94, .T. ) ;
#64 = CALENDAR_DATE ( 2022, 30, 8 ) ;
#65 = EDGE_LOOP ( 'NONE', ( #132, #166, #190, #199 ) ) ;
#66 = PERSON_AND_ORGANIZATION ( #293, #95 ) ;
#67 = ORIENTED_EDGE ( 'NONE', *, *, #9, .T. ) ;
#68 = APPROVAL_STATUS ( 'not_yet_approved' ) ;
#69 = ORIENTED_EDGE ( 'NONE', *, *, #3, .F. ) ;
#70 = DIRECTION ( 'NONE',  ( 1.000000000000000000, 0.000000000000000000, 0.000000000000000000 ) ) ;
#71 = EDGE_CURVE ( 'NONE', #99, #165, #231, .T. ) ;
#72 = DIRECTION ( 'NONE',  ( 0.000000000000000000, 0.000000000000000000, 1.000000000000000000 ) ) ;
#73 = FACE_OUTER_BOUND ( 'NONE', #65, .T. ) ;
#74 = MANIFOLD_SOLID_BREP ( 'Zaoblit1', #60 ) ;
#75 = DIRECTION ( 'NONE',  ( -0.000000000000000000, -0.000000000000000000, -1.000000000000000000 ) ) ;
#76 = DIRECTION ( 'NONE',  ( -1.000000000000000000, 0.000000000000000000, 0.000000000000000000 ) ) ;
#77 = CC_DESIGN_PERSON_AND_ORGANIZATION_ASSIGNMENT ( #159, #294, ( #131 ) ) ;
#78 = CARTESIAN_POINT ( 'NONE',  ( 0.000000000000000000, 0.000000000000000000, 0.000000000000000000 ) ) ;
#79 = CIRCLE ( 'NONE', #248, 0.8499999999999999778 ) ;
#80 = APPROVAL_PERSON_ORGANIZATION ( #273, #96, #130 ) ;
#81 = CARTESIAN_POINT ( 'NONE',  ( -1.449999999999999956, 0.000000000000000000, 1.500000000000000000 ) ) ;
#82 = LINE ( 'NONE', #81, #100 ) ;
#83 = CYLINDRICAL_SURFACE ( 'NONE', #245, 0.6500000000000000222 ) ;
#84 = AXIS2_PLACEMENT_3D ( 'NONE', #78, #56, #220 ) ;
#85 = PERSON_AND_ORGANIZATION_ROLE ( 'creator' ) ;
#86 = ADVANCED_FACE ( 'NONE', ( #73 ), #33, .F. ) ;
#87 = DIRECTION ( 'NONE',  ( 0.000000000000000000, 0.000000000000000000, 1.000000000000000000 ) ) ;
#88 = CIRCLE ( 'NONE', #156, 0.6500000000000000222 ) ;
#89 = VERTEX_POINT ( 'NONE', #49 ) ;
#90 = ORIENTED_EDGE ( 'NONE', *, *, #9, .F. ) ;
#91 = DATE_AND_TIME ( #276, #288 ) ;
#92 = PLANE ( 'NONE',  #143 ) ;
#93 = EDGE_LOOP ( 'NONE', ( #161, #69, #16, #230 ) ) ;
#94 = CIRCLE ( 'NONE', #151, 0.6500000000000000222 ) ;
#95 = ORGANIZATION ( 'NEURÈENÝ', 'NEURÈENÝ', '' ) ;
#96 = APPROVAL ( #38, 'NEURÈENÝ' ) ;
#97 = CARTESIAN_POINT ( 'NONE',  ( 0.000000000000000000, 0.000000000000000000, 1.700000000000007061 ) ) ;
#98 = CARTESIAN_POINT ( 'NONE',  ( 0.000000000000000000, 0.000000000000000000, 1.500000000000000000 ) ) ;
#99 = VERTEX_POINT ( 'NONE', #171 ) ;
#100 = VECTOR ( 'NONE', #219, 1000.000000000000000 ) ;
#101 =( GEOMETRIC_REPRESENTATION_CONTEXT ( 3 ) GLOBAL_UNCERTAINTY_ASSIGNED_CONTEXT ( ( #40 ) ) GLOBAL_UNIT_ASSIGNED_CONTEXT ( ( #62, #129, #108 ) ) REPRESENTATION_CONTEXT ( 'NONE', 'WORKASPACE' ) );
#102 = PLANE ( 'NONE',  #200 ) ;
#103 = EDGE_CURVE ( 'NONE', #208, #116, #27, .T. ) ;
#104 = FACE_OUTER_BOUND ( 'NONE', #205, .T. ) ;
#105 = FACE_OUTER_BOUND ( 'NONE', #295, .T. ) ;
#106 = CARTESIAN_POINT ( 'NONE',  ( 0.000000000000000000, 0.000000000000000000, 1.700000000000007061 ) ) ;
#107 = CARTESIAN_POINT ( 'NONE',  ( 0.000000000000000000, 0.000000000000000000, 126.5000000000000000 ) ) ;
#108 =( NAMED_UNIT ( * ) SI_UNIT ( $, .STERADIAN. ) SOLID_ANGLE_UNIT ( ) );
#109 = EDGE_LOOP ( 'NONE', ( #184, #187, #37, #306 ) ) ;
#110 = DIRECTION ( 'NONE',  ( 1.000000000000000000, 0.000000000000000000, 0.000000000000000000 ) ) ;
#111 = PRODUCT_DEFINITION_FORMATION_WITH_SPECIFIED_SOURCE ( 'LIBOVOLNÝ', '', #17, .NOT_KNOWN. ) ;
#112 = PERSON_AND_ORGANIZATION_ROLE ( 'design_supplier' ) ;
#113 = DATE_AND_TIME ( #12, #195 ) ;
#114 = DATE_AND_TIME ( #64, #258 ) ;
#115 = ORIENTED_EDGE ( 'NONE', *, *, #71, .F. ) ;
#116 = VERTEX_POINT ( 'NONE', #289 ) ;
#117 = APPROVAL_ROLE ( '' ) ;
#118 = DIRECTION ( 'NONE',  ( 1.000000000000000000, 0.000000000000000000, 0.000000000000000000 ) ) ;
#119 = CARTESIAN_POINT ( 'NONE',  ( 0.000000000000000000, 0.000000000000000000, 1.500000000000000000 ) ) ;
#120 = SECURITY_CLASSIFICATION ( '', '', #202 ) ;
#121 = DIRECTION ( 'NONE',  ( 0.000000000000000000, 0.000000000000000000, 1.000000000000000000 ) ) ;
#122 = ORIENTED_EDGE ( 'NONE', *, *, #278, .T. ) ;
#123 = LINE ( 'NONE', #215, #6 ) ;
#124 = CARTESIAN_POINT ( 'NONE',  ( 0.000000000000000000, 0.000000000000000000, 126.5000000000000000 ) ) ;
#125 = CARTESIAN_POINT ( 'NONE',  ( 0.000000000000000000, 0.000000000000000000, 126.5000000000000000 ) ) ;
#126 = EDGE_CURVE ( 'NONE', #275, #99, #210, .T. ) ;
#127 = FACE_OUTER_BOUND ( 'NONE', #257, .T. ) ;
#128 = DIRECTION ( 'NONE',  ( 1.000000000000000000, 0.000000000000000000, 0.000000000000000000 ) ) ;
#129 =( NAMED_UNIT ( * ) PLANE_ANGLE_UNIT ( ) SI_UNIT ( $, .RADIAN. ) );
#130 = APPROVAL_ROLE ( '' ) ;
#131 = PRODUCT_DEFINITION ( 'NEZNÁMÝ', '', #111, #298 ) ;
#132 = ORIENTED_EDGE ( 'NONE', *, *, #212, .F. ) ;
#133 = PERSON_AND_ORGANIZATION_ROLE ( 'design_owner' ) ;
#134 = CC_DESIGN_SECURITY_CLASSIFICATION ( #120, ( #111 ) ) ;
#135 = CALENDAR_DATE ( 2022, 30, 8 ) ;
#136 = ORIENTED_EDGE ( 'NONE', *, *, #3, .T. ) ;
#137 = EDGE_CURVE ( 'NONE', #164, #116, #82, .T. ) ;
#138 = APPROVAL_DATE_TIME ( #91, #198 ) ;
#139 = EDGE_CURVE ( 'NONE', #203, #89, #88, .T. ) ;
#140 = ORIENTED_EDGE ( 'NONE', *, *, #103, .F. ) ;
#141 = DIRECTION ( 'NONE',  ( 1.000000000000000000, 0.000000000000000000, -0.000000000000000000 ) ) ;
#142 = EDGE_LOOP ( 'NONE', ( #144, #277 ) ) ;
#143 = AXIS2_PLACEMENT_3D ( 'NONE', #119, #72, #211 ) ;
#144 = ORIENTED_EDGE ( 'NONE', *, *, #71, .T. ) ;
#145 = ORIENTED_EDGE ( 'NONE', *, *, #283, .F. ) ;
#146 = DIRECTION ( 'NONE',  ( -0.000000000000000000, -0.000000000000000000, -1.000000000000000000 ) ) ;
#147 = APPROVAL_PERSON_ORGANIZATION ( #66, #198, #117 ) ;
#148 = CYLINDRICAL_SURFACE ( 'NONE', #180, 1.449999999999999956 ) ;
#149 = DIRECTION ( 'NONE',  ( -1.000000000000000000, 0.000000000000000000, 0.000000000000000000 ) ) ;
#150 = DIRECTION ( 'NONE',  ( 1.000000000000000000, 0.000000000000000000, 0.000000000000000000 ) ) ;
#151 = AXIS2_PLACEMENT_3D ( 'NONE', #23, #121, #168 ) ;
#152 = CALENDAR_DATE ( 2022, 30, 8 ) ;
#153 = ADVANCED_FACE ( 'NONE', ( #104 ), #102, .T. ) ;
#154 = DIRECTION ( 'NONE',  ( 0.000000000000000000, 0.000000000000000000, 1.000000000000000000 ) ) ;
#155 = CARTESIAN_POINT ( 'NONE',  ( 0.000000000000000000, 0.000000000000000000, 0.000000000000000000 ) ) ;
#156 = AXIS2_PLACEMENT_3D ( 'NONE', #124, #307, #150 ) ;
#157 = PERSON_AND_ORGANIZATION ( #293, #95 ) ;
#158 = ADVANCED_FACE ( 'NONE', ( #55 ), #244, .T. ) ;
#159 = PERSON_AND_ORGANIZATION ( #293, #95 ) ;
#160 = COORDINATED_UNIVERSAL_TIME_OFFSET ( 1, 0, .AHEAD. ) ;
#161 = ORIENTED_EDGE ( 'NONE', *, *, #58, .F. ) ;
#162 = CIRCLE ( 'NONE', #41, 0.6500000000000000222 ) ;
#163 = DIRECTION ( 'NONE',  ( 0.000000000000000000, 0.000000000000000000, 1.000000000000000000 ) ) ;
#164 = VERTEX_POINT ( 'NONE', #285 ) ;
#165 = VERTEX_POINT ( 'NONE', #169 ) ;
#166 = ORIENTED_EDGE ( 'NONE', *, *, #47, .F. ) ;
#167 = AXIS2_PLACEMENT_3D ( 'NONE', #155, #87, #110 ) ;
#168 = DIRECTION ( 'NONE',  ( 1.000000000000000000, 0.000000000000000000, 0.000000000000000000 ) ) ;
#169 = CARTESIAN_POINT ( 'NONE',  ( -0.8499999999999999778, 1.040949779275250140E-16, 1.500000000000003553 ) ) ;
#170 = CC_DESIGN_PERSON_AND_ORGANIZATION_ASSIGNMENT ( #10, #112, ( #111 ) ) ;
#171 = CARTESIAN_POINT ( 'NONE',  ( 0.8499999999999999778, 0.000000000000000000, 1.500000000000003553 ) ) ;
#172 = CC_DESIGN_APPROVAL ( #198, ( #120 ) ) ;
#173 = DIRECTION ( 'NONE',  ( 1.000000000000000000, 0.000000000000000000, -0.000000000000000000 ) ) ;
#174 = DIRECTION ( 'NONE',  ( 1.000000000000000000, 0.000000000000000000, 0.000000000000000000 ) ) ;
#175 = DIRECTION ( 'NONE',  ( 1.224646799147353207E-16, 1.000000000000000000, -0.000000000000000000 ) ) ;
#176 = CIRCLE ( 'NONE', #42, 0.6500000000000000222 ) ;
#177 = PERSON_AND_ORGANIZATION ( #293, #95 ) ;
#178 = ADVANCED_FACE ( 'NONE', ( #261 ), #148, .T. ) ;
#179 = ORIENTED_EDGE ( 'NONE', *, *, #265, .F. ) ;
#180 = AXIS2_PLACEMENT_3D ( 'NONE', #29, #30, #8 ) ;
#181 = PERSON_AND_ORGANIZATION_ROLE ( 'classification_officer' ) ;
#182 = ORIENTED_EDGE ( 'NONE', *, *, #63, .F. ) ;
#183 = COORDINATED_UNIVERSAL_TIME_OFFSET ( 1, 0, .AHEAD. ) ;
#184 = ORIENTED_EDGE ( 'NONE', *, *, #139, .F. ) ;
#185 = FACE_OUTER_BOUND ( 'NONE', #13, .T. ) ;
#186 = ADVANCED_FACE ( 'NONE', ( #266 ), #57, .T. ) ;
#187 = ORIENTED_EDGE ( 'NONE', *, *, #265, .T. ) ;
#188 = LINE ( 'NONE', #280, #191 ) ;
#189 = DIRECTION ( 'NONE',  ( -0.000000000000000000, -0.000000000000000000, -1.000000000000000000 ) ) ;
#190 = ORIENTED_EDGE ( 'NONE', *, *, #126, .T. ) ;
#191 = VECTOR ( 'NONE', #75, 1000.000000000000000 ) ;
#192 = DIRECTION ( 'NONE',  ( 0.000000000000000000, 0.000000000000000000, -1.000000000000000000 ) ) ;
#193 = CARTESIAN_POINT ( 'NONE',  ( 0.000000000000000000, 0.000000000000000000, 1.700000000000007061 ) ) ;
#194 = CARTESIAN_POINT ( 'NONE',  ( 0.000000000000000000, 0.000000000000000000, 126.5000000000000000 ) ) ;
#195 = LOCAL_TIME ( 15, 48, 22.00000000000000000, #229 ) ;
#196 = CARTESIAN_POINT ( 'NONE',  ( 0.6500000000000000222, 7.960204194457795477E-17, 126.5000000000000000 ) ) ;
#197 = DIRECTION ( 'NONE',  ( -0.000000000000000000, -0.000000000000000000, -1.000000000000000000 ) ) ;
#198 = APPROVAL ( #68, 'NEURÈENÝ' ) ;
#199 = ORIENTED_EDGE ( 'NONE', *, *, #226, .F. ) ;
#200 = AXIS2_PLACEMENT_3D ( 'NONE', #107, #284, #173 ) ;
#201 = APPROVAL_DATE_TIME ( #114, #96 ) ;
#202 = SECURITY_CLASSIFICATION_LEVEL ( 'unclassified' ) ;
#203 = VERTEX_POINT ( 'NONE', #59 ) ;
#204 = PERSON_AND_ORGANIZATION ( #293, #95 ) ;
#205 = EDGE_LOOP ( 'NONE', ( #237, #214 ) ) ;
#206 = AXIS2_PLACEMENT_3D ( 'NONE', #262, #146, #76 ) ;
#207 = APPROVAL_ROLE ( '' ) ;
#208 = VERTEX_POINT ( 'NONE', #32 ) ;
#209 = DIRECTION ( 'NONE',  ( 0.000000000000000000, 0.000000000000000000, 1.000000000000000000 ) ) ;
#210 = CIRCLE ( 'NONE', #252, 0.2000000000000000944 ) ;
#211 = DIRECTION ( 'NONE',  ( 1.000000000000000000, 0.000000000000000000, -0.000000000000000000 ) ) ;
#212 = EDGE_CURVE ( 'NONE', #232, #165, #272, .T. ) ;
#213 = DIRECTION ( 'NONE',  ( 0.000000000000000000, 0.000000000000000000, 1.000000000000000000 ) ) ;
#214 = ORIENTED_EDGE ( 'NONE', *, *, #139, .T. ) ;
#215 = CARTESIAN_POINT ( 'NONE',  ( -0.6500000000000000222, 0.000000000000000000, 126.5000000000000000 ) ) ;
#216 = AXIS2_PLACEMENT_3D ( 'NONE', #20, #209, #70 ) ;
#217 = APPROVAL_PERSON_ORGANIZATION ( #157, #19, #207 ) ;
#218 = CARTESIAN_POINT ( 'NONE',  ( -0.8499999999999999778, 1.040949779275250140E-16, 1.700000000000007061 ) ) ;
#219 = DIRECTION ( 'NONE',  ( -0.000000000000000000, -0.000000000000000000, -1.000000000000000000 ) ) ;
#220 = DIRECTION ( 'NONE',  ( 1.000000000000000000, 0.000000000000000000, 0.000000000000000000 ) ) ;
#221 = AXIS2_PLACEMENT_3D ( 'NONE', #98, #189, #281 ) ;
#222 = CC_DESIGN_DATE_AND_TIME_ASSIGNMENT ( #113, #296, ( #120 ) ) ;
#223 = DIRECTION ( 'NONE',  ( 0.000000000000000000, -1.000000000000000000, 0.000000000000000000 ) ) ;
#224 = APPLICATION_PROTOCOL_DEFINITION ( 'international standard', 'config_control_design', 1994, #2 ) ;
#225 = COORDINATED_UNIVERSAL_TIME_OFFSET ( 1, 0, .AHEAD. ) ;
#226 = EDGE_CURVE ( 'NONE', #165, #99, #79, .T. ) ;
#227 = CIRCLE ( 'NONE', #216, 1.449999999999999956 ) ;
#228 = COORDINATED_UNIVERSAL_TIME_OFFSET ( 1, 0, .AHEAD. ) ;
#229 = COORDINATED_UNIVERSAL_TIME_OFFSET ( 1, 0, .AHEAD. ) ;
#230 = ORIENTED_EDGE ( 'NONE', *, *, #283, .T. ) ;
#231 = CIRCLE ( 'NONE', #221, 0.8499999999999999778 ) ;
#232 = VERTEX_POINT ( 'NONE', #290 ) ;
#233 = EDGE_LOOP ( 'NONE', ( #256, #25, #259, #300 ) ) ;
#234 = FACE_OUTER_BOUND ( 'NONE', #44, .T. ) ;
#235 = AXIS2_PLACEMENT_3D ( 'NONE', #236, #303, #301 ) ;
#236 = CARTESIAN_POINT ( 'NONE',  ( 0.000000000000000000, 0.000000000000000000, 1.500000000000000000 ) ) ;
#237 = ORIENTED_EDGE ( 'NONE', *, *, #63, .T. ) ;
#238 = DIRECTION ( 'NONE',  ( -0.000000000000000000, -0.000000000000000000, -1.000000000000000000 ) ) ;
#239 = ADVANCED_FACE ( 'NONE', ( #127 ), #241, .F. ) ;
#240 = DIRECTION ( 'NONE',  ( -1.000000000000000000, 1.224646799147352714E-16, 0.000000000000000000 ) ) ;
#241 = TOROIDAL_SURFACE ( 'NONE', #287, 0.8499999999999999778, 0.2000000000000000111 ) ;
#242 = DIRECTION ( 'NONE',  ( -0.000000000000000000, -0.000000000000000000, -1.000000000000000000 ) ) ;
#243 = PRODUCT_RELATED_PRODUCT_CATEGORY ( 'detail', '', ( #17 ) ) ;
#244 = CYLINDRICAL_SURFACE ( 'NONE', #206, 1.449999999999999956 ) ;
#245 = AXIS2_PLACEMENT_3D ( 'NONE', #194, #242, #267 ) ;
#246 = APPROVAL_STATUS ( 'not_yet_approved' ) ;
#247 = DATE_AND_TIME ( #152, #15 ) ;
#248 = AXIS2_PLACEMENT_3D ( 'NONE', #31, #197, #1 ) ;
#249 = LOCAL_TIME ( 15, 48, 22.00000000000000000, #183 ) ;
#250 = PERSON_AND_ORGANIZATION ( #293, #95 ) ;
#251 = ORIENTED_EDGE ( 'NONE', *, *, #126, .F. ) ;
#252 = AXIS2_PLACEMENT_3D ( 'NONE', #286, #223, #192 ) ;
#253 = ADVANCED_BREP_SHAPE_REPRESENTATION ( '6ed3', ( #74, #167 ), #101 ) ;
#254 = DIRECTION ( 'NONE',  ( 1.000000000000000000, 0.000000000000000000, 0.000000000000000000 ) ) ;
#255 = CC_DESIGN_PERSON_AND_ORGANIZATION_ASSIGNMENT ( #204, #85, ( #111 ) ) ;
#256 = ORIENTED_EDGE ( 'NONE', *, *, #11, .F. ) ;
#257 = EDGE_LOOP ( 'NONE', ( #90, #18, #115, #251 ) ) ;
#258 = LOCAL_TIME ( 15, 48, 22.00000000000000000, #225 ) ;
#259 = ORIENTED_EDGE ( 'NONE', *, *, #103, .T. ) ;
#260 = ADVANCED_FACE ( 'NONE', ( #105 ), #83, .T. ) ;
#261 = FACE_OUTER_BOUND ( 'NONE', #93, .T. ) ;
#262 = CARTESIAN_POINT ( 'NONE',  ( 0.000000000000000000, 0.000000000000000000, 1.500000000000000000 ) ) ;
#263 = AXIS2_PLACEMENT_3D ( 'NONE', #106, #51, #174 ) ;
#264 = DIRECTION ( 'NONE',  ( -0.000000000000000000, -0.000000000000000000, -1.000000000000000000 ) ) ;
#265 = EDGE_CURVE ( 'NONE', #203, #275, #5, .T. ) ;
#266 = FACE_OUTER_BOUND ( 'NONE', #109, .T. ) ;
#267 = DIRECTION ( 'NONE',  ( -1.000000000000000000, 0.000000000000000000, 0.000000000000000000 ) ) ;
#268 = AXIS2_PLACEMENT_3D ( 'NONE', #125, #264, #149 ) ;
#269 = CARTESIAN_POINT ( 'NONE',  ( 0.000000000000000000, 0.000000000000000000, 0.000000000000000000 ) ) ;
#270 = CC_DESIGN_PERSON_AND_ORGANIZATION_ASSIGNMENT ( #250, #181, ( #120 ) ) ;
#271 = DIRECTION ( 'NONE',  ( -0.000000000000000000, -0.000000000000000000, -1.000000000000000000 ) ) ;
#272 = CIRCLE ( 'NONE', #48, 0.1999999999999999833 ) ;
#273 = PERSON_AND_ORGANIZATION ( #293, #95 ) ;
#274 = CARTESIAN_POINT ( 'NONE',  ( 1.449999999999999956, 1.775737858763661916E-16, 1.500000000000000000 ) ) ;
#275 = VERTEX_POINT ( 'NONE', #26 ) ;
#276 = CALENDAR_DATE ( 2022, 30, 8 ) ;
#277 = ORIENTED_EDGE ( 'NONE', *, *, #226, .T. ) ;
#278 = EDGE_CURVE ( 'NONE', #89, #232, #123, .T. ) ;
#279 = ORIENTED_EDGE ( 'NONE', *, *, #11, .T. ) ;
#280 = CARTESIAN_POINT ( 'NONE',  ( 1.449999999999999956, 1.775737858763661916E-16, 1.500000000000000000 ) ) ;
#281 = DIRECTION ( 'NONE',  ( 1.000000000000000000, 0.000000000000000000, 0.000000000000000000 ) ) ;
#282 = PLANE ( 'NONE',  #14 ) ;
#283 = EDGE_CURVE ( 'NONE', #116, #208, #7, .T. ) ;
#284 = DIRECTION ( 'NONE',  ( 0.000000000000000000, 0.000000000000000000, 1.000000000000000000 ) ) ;
#285 = CARTESIAN_POINT ( 'NONE',  ( -1.449999999999999956, 0.000000000000000000, 1.500000000000000000 ) ) ;
#286 = CARTESIAN_POINT ( 'NONE',  ( 0.8499999999999999778, 0.000000000000000000, 1.700000000000007061 ) ) ;
#287 = AXIS2_PLACEMENT_3D ( 'NONE', #193, #4, #128 ) ;
#288 = LOCAL_TIME ( 15, 48, 22.00000000000000000, #160 ) ;
#289 = CARTESIAN_POINT ( 'NONE',  ( -1.449999999999999956, 0.000000000000000000, 0.000000000000000000 ) ) ;
#290 = CARTESIAN_POINT ( 'NONE',  ( -0.6500000000000000222, 0.000000000000000000, 1.700000000000007061 ) ) ;
#291 = DATE_TIME_ROLE ( 'creation_date' ) ;
#292 = APPROVAL_DATE_TIME ( #35, #19 ) ;
#293 = PERSON ( 'NEURÈENÝ', 'NEURÈENÝ', 'NEURÈENÝ', ('NEURÈENÝ'), ('NEURÈENÝ'), ('NEURÈENÝ') ) ;
#294 = PERSON_AND_ORGANIZATION_ROLE ( 'creator' ) ;
#295 = EDGE_LOOP ( 'NONE', ( #179, #182, #122, #67 ) ) ;
#296 = DATE_TIME_ROLE ( 'classification_date' ) ;
#297 = CC_DESIGN_DATE_AND_TIME_ASSIGNMENT ( #247, #291, ( #131 ) ) ;
#298 = DESIGN_CONTEXT ( 'detailed design', #2, 'design' ) ;
#299 = MECHANICAL_CONTEXT ( 'NONE', #61, 'mechanical' ) ;
#300 = ORIENTED_EDGE ( 'NONE', *, *, #137, .F. ) ;
#301 = DIRECTION ( 'NONE',  ( 1.000000000000000000, 0.000000000000000000, 0.000000000000000000 ) ) ;
#302 = VERTEX_POINT ( 'NONE', #274 ) ;
#303 = DIRECTION ( 'NONE',  ( 0.000000000000000000, 0.000000000000000000, 1.000000000000000000 ) ) ;
#304 = SHAPE_DEFINITION_REPRESENTATION ( #52, #253 ) ;
#305 = DIRECTION ( 'NONE',  ( 0.000000000000000000, 0.000000000000000000, 1.000000000000000000 ) ) ;
#306 = ORIENTED_EDGE ( 'NONE', *, *, #278, .F. ) ;
#307 = DIRECTION ( 'NONE',  ( 0.000000000000000000, 0.000000000000000000, 1.000000000000000000 ) ) ;
ENDSEC;
END-ISO-10303-21;
