ISO-10303-21;
HEADER;
FILE_DESCRIPTION (( 'STEP AP203' ),
    '1' );
FILE_NAME ('9892.STEP',
    '2023-02-13T16:05:16',
    ( '' ),
    ( '' ),
    'SwSTEP 2.0',
    'SolidWorks 2019',
    '' );
FILE_SCHEMA (( 'CONFIG_CONTROL_DESIGN' ));
ENDSEC;

DATA;
#1 = ORIENTED_EDGE ( 'NONE', *, *, #4, .T. ) ;
#2 = CIRCLE ( 'NONE', #209, 5.000000000000000000 ) ;
#3 = CALENDAR_DATE ( 2023, 13, 2 ) ;
#4 = EDGE_CURVE ( 'NONE', #232, #19, #222, .T. ) ;
#5 = ORIENTED_EDGE ( 'NONE', *, *, #81, .F. ) ;
#6 = CARTESIAN_POINT ( 'NONE',  ( -2.500000000000000000, 0.000000000000000000, 5.000000000000000000 ) ) ;
#7 = CALENDAR_DATE ( 2023, 13, 2 ) ;
#8 = CYLINDRICAL_SURFACE ( 'NONE', #48, 2.500000000000000000 ) ;
#9 = CARTESIAN_POINT ( 'NONE',  ( 2.500000000000000000, 3.061616997868383141E-16, 5.000000000000000000 ) ) ;
#10 = DIRECTION ( 'NONE',  ( -0.000000000000000000, -0.000000000000000000, -1.000000000000000000 ) ) ;
#11 = EDGE_CURVE ( 'NONE', #83, #120, #141, .T. ) ;
#12 = ORIENTED_EDGE ( 'NONE', *, *, #11, .T. ) ;
#13 = AXIS2_PLACEMENT_3D ( 'NONE', #132, #107, #30 ) ;
#14 = DIRECTION ( 'NONE',  ( 0.000000000000000000, 0.000000000000000000, 1.000000000000000000 ) ) ;
#15 = DATE_AND_TIME ( #155, #173 ) ;
#16 = ORIENTED_EDGE ( 'NONE', *, *, #157, .T. ) ;
#17 = PERSON_AND_ORGANIZATION ( #151, #201 ) ;
#18 = PRODUCT_DEFINITION ( 'NEZNÁMÝ', '', #250, #224 ) ;
#19 = VERTEX_POINT ( 'NONE', #93 ) ;
#20 = CIRCLE ( 'NONE', #106, 2.500000000000000000 ) ;
#21 = EDGE_LOOP ( 'NONE', ( #5, #158, #123, #213 ) ) ;
#22 = ORIENTED_EDGE ( 'NONE', *, *, #81, .T. ) ;
#23 = SHAPE_DEFINITION_REPRESENTATION ( #45, #111 ) ;
#24 = PERSON_AND_ORGANIZATION ( #151, #201 ) ;
#25 = APPROVAL_STATUS ( 'not_yet_approved' ) ;
#26 = AXIS2_PLACEMENT_3D ( 'NONE', #148, #225, #202 ) ;
#27 = APPROVAL ( #160, 'NEURÈENÝ' ) ;
#28 = DIRECTION ( 'NONE',  ( 0.000000000000000000, 0.000000000000000000, 1.000000000000000000 ) ) ;
#29 = CC_DESIGN_APPROVAL ( #27, ( #250 ) ) ;
#30 = DIRECTION ( 'NONE',  ( 1.000000000000000000, 0.000000000000000000, 0.000000000000000000 ) ) ;
#31 = PERSON_AND_ORGANIZATION_ROLE ( 'creator' ) ;
#32 = UNCERTAINTY_MEASURE_WITH_UNIT (LENGTH_MEASURE( 1.000000000000000082E-05 ), #193, 'distance_accuracy_value', 'NONE');
#33 = SECURITY_CLASSIFICATION ( '', '', #179 ) ;
#34 = CARTESIAN_POINT ( 'NONE',  ( 5.000000000000000000, 6.123233995736766282E-16, 5.000000000000000000 ) ) ;
#35 = ORIENTED_EDGE ( 'NONE', *, *, #11, .F. ) ;
#36 = CC_DESIGN_PERSON_AND_ORGANIZATION_ASSIGNMENT ( #197, #164, ( #100 ) ) ;
#37 = ORIENTED_EDGE ( 'NONE', *, *, #133, .F. ) ;
#38 = ORIENTED_EDGE ( 'NONE', *, *, #113, .T. ) ;
#39 = AXIS2_PLACEMENT_3D ( 'NONE', #166, #74, #109 ) ;
#40 = DIRECTION ( 'NONE',  ( -0.000000000000000000, -0.000000000000000000, -1.000000000000000000 ) ) ;
#41 = AXIS2_PLACEMENT_3D ( 'NONE', #168, #248, #182 ) ;
#42 = ORIENTED_EDGE ( 'NONE', *, *, #180, .T. ) ;
#43 = ADVANCED_FACE ( 'NONE', ( #126 ), #72, .F. ) ;
#44 = ORIENTED_EDGE ( 'NONE', *, *, #207, .F. ) ;
#45 = PRODUCT_DEFINITION_SHAPE ( 'NONE', 'NONE',  #18 ) ;
#46 = PERSON_AND_ORGANIZATION ( #151, #201 ) ;
#47 = LOCAL_TIME ( 17, 5, 16.00000000000000000, #237 ) ;
#48 = AXIS2_PLACEMENT_3D ( 'NONE', #231, #76, #88 ) ;
#49 = CC_DESIGN_DATE_AND_TIME_ASSIGNMENT ( #138, #243, ( #18 ) ) ;
#50 = PERSON_AND_ORGANIZATION ( #151, #201 ) ;
#51 = CALENDAR_DATE ( 2023, 13, 2 ) ;
#52 = COORDINATED_UNIVERSAL_TIME_OFFSET ( 1, 0, .AHEAD. ) ;
#53 = APPLICATION_PROTOCOL_DEFINITION ( 'international standard', 'config_control_design', 1994, #236 ) ;
#54 = DIRECTION ( 'NONE',  ( -1.000000000000000000, 0.000000000000000000, 0.000000000000000000 ) ) ;
#55 =( NAMED_UNIT ( * ) PLANE_ANGLE_UNIT ( ) SI_UNIT ( $, .RADIAN. ) );
#56 = COORDINATED_UNIVERSAL_TIME_OFFSET ( 1, 0, .AHEAD. ) ;
#57 = DIRECTION ( 'NONE',  ( -0.000000000000000000, -0.000000000000000000, -1.000000000000000000 ) ) ;
#58 = APPROVAL_PERSON_ORGANIZATION ( #17, #115, #175 ) ;
#59 = PLANE ( 'NONE',  #143 ) ;
#60 = VECTOR ( 'NONE', #40, 1000.000000000000000 ) ;
#61 = ORIENTED_EDGE ( 'NONE', *, *, #113, .F. ) ;
#62 = PRODUCT_RELATED_PRODUCT_CATEGORY ( 'detail', '', ( #100 ) ) ;
#63 = DIRECTION ( 'NONE',  ( 0.000000000000000000, 0.000000000000000000, 1.000000000000000000 ) ) ;
#64 = CIRCLE ( 'NONE', #159, 5.000000000000000000 ) ;
#65 = EDGE_LOOP ( 'NONE', ( #251, #214, #12, #99 ) ) ;
#66 = DATE_AND_TIME ( #51, #47 ) ;
#67 = DIRECTION ( 'NONE',  ( -1.000000000000000000, 0.000000000000000000, 0.000000000000000000 ) ) ;
#68 = DATE_AND_TIME ( #3, #82 ) ;
#69 =( NAMED_UNIT ( * ) SI_UNIT ( $, .STERADIAN. ) SOLID_ANGLE_UNIT ( ) );
#70 = PERSON_AND_ORGANIZATION_ROLE ( 'classification_officer' ) ;
#71 = CYLINDRICAL_SURFACE ( 'NONE', #229, 2.500000000000000000 ) ;
#72 = PLANE ( 'NONE',  #41 ) ;
#73 = LINE ( 'NONE', #221, #191 ) ;
#74 = DIRECTION ( 'NONE',  ( 0.000000000000000000, 0.000000000000000000, 1.000000000000000000 ) ) ;
#75 = EDGE_CURVE ( 'NONE', #118, #83, #185, .T. ) ;
#76 = DIRECTION ( 'NONE',  ( -0.000000000000000000, -0.000000000000000000, -1.000000000000000000 ) ) ;
#77 = MANIFOLD_SOLID_BREP ( 'Pøidat vysunutím3', #122 ) ;
#78 = CC_DESIGN_APPROVAL ( #115, ( #33 ) ) ;
#79 = CARTESIAN_POINT ( 'NONE',  ( 0.000000000000000000, 0.000000000000000000, 0.000000000000000000 ) ) ;
#80 = VERTEX_POINT ( 'NONE', #9 ) ;
#81 = EDGE_CURVE ( 'NONE', #19, #80, #245, .T. ) ;
#82 = LOCAL_TIME ( 17, 5, 16.00000000000000000, #102 ) ;
#83 = VERTEX_POINT ( 'NONE', #226 ) ;
#84 = AXIS2_PLACEMENT_3D ( 'NONE', #234, #253, #212 ) ;
#85 = CARTESIAN_POINT ( 'NONE',  ( 0.000000000000000000, 0.000000000000000000, 800.0000000000000000 ) ) ;
#86 = ADVANCED_FACE ( 'NONE', ( #189 ), #96, .T. ) ;
#87 = PERSON_AND_ORGANIZATION ( #151, #201 ) ;
#88 = DIRECTION ( 'NONE',  ( -1.000000000000000000, 0.000000000000000000, 0.000000000000000000 ) ) ;
#89 = MECHANICAL_CONTEXT ( 'NONE', #236, 'mechanical' ) ;
#90 = DIRECTION ( 'NONE',  ( -0.000000000000000000, -0.000000000000000000, -1.000000000000000000 ) ) ;
#91 = CARTESIAN_POINT ( 'NONE',  ( 0.000000000000000000, 0.000000000000000000, 0.000000000000000000 ) ) ;
#92 = APPROVAL ( #25, 'NEURÈENÝ' ) ;
#93 = CARTESIAN_POINT ( 'NONE',  ( 2.500000000000000000, 3.061616997868383141E-16, 800.0000000000000000 ) ) ;
#94 = AXIS2_PLACEMENT_3D ( 'NONE', #79, #249, #165 ) ;
#95 = DIRECTION ( 'NONE',  ( 1.000000000000000000, 0.000000000000000000, -0.000000000000000000 ) ) ;
#96 = PLANE ( 'NONE',  #84 ) ;
#97 = LOCAL_TIME ( 17, 5, 16.00000000000000000, #108 ) ;
#98 = AXIS2_PLACEMENT_3D ( 'NONE', #192, #63, #135 ) ;
#99 = ORIENTED_EDGE ( 'NONE', *, *, #133, .T. ) ;
#100 = PRODUCT ( '9892', '9892', '', ( #89 ) ) ;
#101 = CC_DESIGN_SECURITY_CLASSIFICATION ( #33, ( #250 ) ) ;
#102 = COORDINATED_UNIVERSAL_TIME_OFFSET ( 1, 0, .AHEAD. ) ;
#103 = PERSON_AND_ORGANIZATION ( #151, #201 ) ;
#104 = APPROVAL_ROLE ( '' ) ;
#105 = CC_DESIGN_PERSON_AND_ORGANIZATION_ASSIGNMENT ( #87, #70, ( #33 ) ) ;
#106 = AXIS2_PLACEMENT_3D ( 'NONE', #181, #150, #228 ) ;
#107 = DIRECTION ( 'NONE',  ( 0.000000000000000000, 0.000000000000000000, 1.000000000000000000 ) ) ;
#108 = COORDINATED_UNIVERSAL_TIME_OFFSET ( 1, 0, .AHEAD. ) ;
#109 = DIRECTION ( 'NONE',  ( 1.000000000000000000, 0.000000000000000000, 0.000000000000000000 ) ) ;
#110 = CARTESIAN_POINT ( 'NONE',  ( 5.000000000000000000, 6.123233995736766282E-16, 5.000000000000000000 ) ) ;
#111 = ADVANCED_BREP_SHAPE_REPRESENTATION ( '9892', ( #77, #39 ), #184 ) ;
#112 = CARTESIAN_POINT ( 'NONE',  ( -2.500000000000000000, 0.000000000000000000, 800.0000000000000000 ) ) ;
#113 = EDGE_CURVE ( 'NONE', #80, #227, #114, .T. ) ;
#114 = CIRCLE ( 'NONE', #98, 2.500000000000000000 ) ;
#115 = APPROVAL ( #239, 'NEURÈENÝ' ) ;
#116 = CARTESIAN_POINT ( 'NONE',  ( -5.000000000000000000, 0.000000000000000000, 0.000000000000000000 ) ) ;
#117 = VECTOR ( 'NONE', #252, 1000.000000000000000 ) ;
#118 = VERTEX_POINT ( 'NONE', #34 ) ;
#119 = DATE_TIME_ROLE ( 'classification_date' ) ;
#120 = VERTEX_POINT ( 'NONE', #116 ) ;
#121 = ORIENTED_EDGE ( 'NONE', *, *, #136, .T. ) ;
#122 = CLOSED_SHELL ( 'NONE', ( #198, #153, #130, #183, #43, #247, #86 ) ) ;
#123 = ORIENTED_EDGE ( 'NONE', *, *, #171, .T. ) ;
#124 = APPROVAL_DATE_TIME ( #66, #115 ) ;
#125 = FACE_OUTER_BOUND ( 'NONE', #65, .T. ) ;
#126 = FACE_OUTER_BOUND ( 'NONE', #223, .T. ) ;
#127 = FACE_BOUND ( 'NONE', #230, .T. ) ;
#128 = PERSON_AND_ORGANIZATION ( #151, #201 ) ;
#129 = APPLICATION_CONTEXT ( 'configuration controlled 3d designs of mechanical parts and assemblies' ) ;
#130 = ADVANCED_FACE ( 'NONE', ( #125 ), #167, .T. ) ;
#131 = CARTESIAN_POINT ( 'NONE',  ( 0.000000000000000000, 0.000000000000000000, 5.000000000000000000 ) ) ;
#132 = CARTESIAN_POINT ( 'NONE',  ( 0.000000000000000000, 0.000000000000000000, 5.000000000000000000 ) ) ;
#133 = EDGE_CURVE ( 'NONE', #120, #169, #254, .T. ) ;
#134 = EDGE_LOOP ( 'NONE', ( #1, #16 ) ) ;
#135 = DIRECTION ( 'NONE',  ( 1.000000000000000000, 0.000000000000000000, 0.000000000000000000 ) ) ;
#136 = EDGE_CURVE ( 'NONE', #83, #118, #2, .T. ) ;
#137 = APPROVAL_PERSON_ORGANIZATION ( #46, #27, #196 ) ;
#138 = DATE_AND_TIME ( #7, #97 ) ;
#139 = CC_DESIGN_DATE_AND_TIME_ASSIGNMENT ( #15, #119, ( #33 ) ) ;
#140 = AXIS2_PLACEMENT_3D ( 'NONE', #195, #238, #176 ) ;
#141 = LINE ( 'NONE', #216, #204 ) ;
#142 = PERSON_AND_ORGANIZATION_ROLE ( 'design_supplier' ) ;
#143 = AXIS2_PLACEMENT_3D ( 'NONE', #200, #14, #95 ) ;
#144 = LINE ( 'NONE', #110, #117 ) ;
#145 = CARTESIAN_POINT ( 'NONE',  ( 2.500000000000000000, 3.061616997868383141E-16, 800.0000000000000000 ) ) ;
#146 = CALENDAR_DATE ( 2023, 13, 2 ) ;
#147 = EDGE_CURVE ( 'NONE', #169, #120, #64, .T. ) ;
#148 = CARTESIAN_POINT ( 'NONE',  ( 0.000000000000000000, 0.000000000000000000, 5.000000000000000000 ) ) ;
#149 = ORIENTED_EDGE ( 'NONE', *, *, #171, .F. ) ;
#150 = DIRECTION ( 'NONE',  ( 0.000000000000000000, 0.000000000000000000, 1.000000000000000000 ) ) ;
#151 = PERSON ( 'NEURÈENÝ', 'NEURÈENÝ', 'NEURÈENÝ', ('NEURÈENÝ'), ('NEURÈENÝ'), ('NEURÈENÝ') ) ;
#152 = DIRECTION ( 'NONE',  ( 0.000000000000000000, 0.000000000000000000, 1.000000000000000000 ) ) ;
#153 = ADVANCED_FACE ( 'NONE', ( #188 ), #199, .T. ) ;
#154 = ORIENTED_EDGE ( 'NONE', *, *, #147, .F. ) ;
#155 = CALENDAR_DATE ( 2023, 13, 2 ) ;
#156 = CC_DESIGN_APPROVAL ( #92, ( #18 ) ) ;
#157 = EDGE_CURVE ( 'NONE', #19, #232, #20, .T. ) ;
#158 = ORIENTED_EDGE ( 'NONE', *, *, #4, .F. ) ;
#159 = AXIS2_PLACEMENT_3D ( 'NONE', #91, #152, #211 ) ;
#160 = APPROVAL_STATUS ( 'not_yet_approved' ) ;
#161 = DIRECTION ( 'NONE',  ( -0.000000000000000000, -0.000000000000000000, -1.000000000000000000 ) ) ;
#162 = AXIS2_PLACEMENT_3D ( 'NONE', #131, #246, #244 ) ;
#163 = FACE_OUTER_BOUND ( 'NONE', #190, .T. ) ;
#164 = PERSON_AND_ORGANIZATION_ROLE ( 'design_owner' ) ;
#165 = DIRECTION ( 'NONE',  ( 1.000000000000000000, 0.000000000000000000, 0.000000000000000000 ) ) ;
#166 = CARTESIAN_POINT ( 'NONE',  ( 0.000000000000000000, 0.000000000000000000, 0.000000000000000000 ) ) ;
#167 = CYLINDRICAL_SURFACE ( 'NONE', #240, 5.000000000000000000 ) ;
#168 = CARTESIAN_POINT ( 'NONE',  ( 0.000000000000000000, 0.000000000000000000, 0.000000000000000000 ) ) ;
#169 = VERTEX_POINT ( 'NONE', #210 ) ;
#170 = CARTESIAN_POINT ( 'NONE',  ( 0.000000000000000000, 0.000000000000000000, 5.000000000000000000 ) ) ;
#171 = EDGE_CURVE ( 'NONE', #232, #227, #73, .T. ) ;
#172 = EDGE_LOOP ( 'NONE', ( #219, #42, #208, #35 ) ) ;
#173 = LOCAL_TIME ( 17, 5, 16.00000000000000000, #52 ) ;
#174 = CIRCLE ( 'NONE', #13, 2.500000000000000000 ) ;
#175 = APPROVAL_ROLE ( '' ) ;
#176 = DIRECTION ( 'NONE',  ( 1.000000000000000000, 0.000000000000000000, 0.000000000000000000 ) ) ;
#177 = CC_DESIGN_PERSON_AND_ORGANIZATION_ASSIGNMENT ( #128, #31, ( #18 ) ) ;
#178 = LOCAL_TIME ( 17, 5, 16.00000000000000000, #56 ) ;
#179 = SECURITY_CLASSIFICATION_LEVEL ( 'unclassified' ) ;
#180 = EDGE_CURVE ( 'NONE', #118, #169, #144, .T. ) ;
#181 = CARTESIAN_POINT ( 'NONE',  ( 0.000000000000000000, 0.000000000000000000, 800.0000000000000000 ) ) ;
#182 = DIRECTION ( 'NONE',  ( 1.000000000000000000, 0.000000000000000000, -0.000000000000000000 ) ) ;
#183 = ADVANCED_FACE ( 'NONE', ( #127, #206 ), #59, .T. ) ;
#184 =( GEOMETRIC_REPRESENTATION_CONTEXT ( 3 ) GLOBAL_UNCERTAINTY_ASSIGNED_CONTEXT ( ( #32 ) ) GLOBAL_UNIT_ASSIGNED_CONTEXT ( ( #193, #55, #69 ) ) REPRESENTATION_CONTEXT ( 'NONE', 'WORKASPACE' ) );
#185 = CIRCLE ( 'NONE', #26, 5.000000000000000000 ) ;
#186 = DIRECTION ( 'NONE',  ( 1.000000000000000000, 0.000000000000000000, 0.000000000000000000 ) ) ;
#187 = CC_DESIGN_PERSON_AND_ORGANIZATION_ASSIGNMENT ( #103, #142, ( #250 ) ) ;
#188 = FACE_OUTER_BOUND ( 'NONE', #172, .T. ) ;
#189 = FACE_OUTER_BOUND ( 'NONE', #134, .T. ) ;
#190 = EDGE_LOOP ( 'NONE', ( #235, #22, #38, #149 ) ) ;
#191 = VECTOR ( 'NONE', #57, 1000.000000000000000 ) ;
#192 = CARTESIAN_POINT ( 'NONE',  ( 0.000000000000000000, 0.000000000000000000, 5.000000000000000000 ) ) ;
#193 =( LENGTH_UNIT ( ) NAMED_UNIT ( * ) SI_UNIT ( .MILLI., .METRE. ) );
#194 = ORIENTED_EDGE ( 'NONE', *, *, #75, .T. ) ;
#195 = CARTESIAN_POINT ( 'NONE',  ( 0.000000000000000000, 0.000000000000000000, 800.0000000000000000 ) ) ;
#196 = APPROVAL_ROLE ( '' ) ;
#197 = PERSON_AND_ORGANIZATION ( #151, #201 ) ;
#198 = ADVANCED_FACE ( 'NONE', ( #163 ), #8, .T. ) ;
#199 = CYLINDRICAL_SURFACE ( 'NONE', #162, 5.000000000000000000 ) ;
#200 = CARTESIAN_POINT ( 'NONE',  ( 0.000000000000000000, 0.000000000000000000, 5.000000000000000000 ) ) ;
#201 = ORGANIZATION ( 'NEURÈENÝ', 'NEURÈENÝ', '' ) ;
#202 = DIRECTION ( 'NONE',  ( 1.000000000000000000, 0.000000000000000000, 0.000000000000000000 ) ) ;
#203 = APPROVAL_DATE_TIME ( #220, #92 ) ;
#204 = VECTOR ( 'NONE', #10, 1000.000000000000000 ) ;
#205 = EDGE_LOOP ( 'NONE', ( #121, #194 ) ) ;
#206 = FACE_OUTER_BOUND ( 'NONE', #205, .T. ) ;
#207 = EDGE_CURVE ( 'NONE', #227, #80, #174, .T. ) ;
#208 = ORIENTED_EDGE ( 'NONE', *, *, #147, .T. ) ;
#209 = AXIS2_PLACEMENT_3D ( 'NONE', #170, #28, #186 ) ;
#210 = CARTESIAN_POINT ( 'NONE',  ( 5.000000000000000000, 6.123233995736766282E-16, 0.000000000000000000 ) ) ;
#211 = DIRECTION ( 'NONE',  ( 1.000000000000000000, 0.000000000000000000, 0.000000000000000000 ) ) ;
#212 = DIRECTION ( 'NONE',  ( 1.000000000000000000, 0.000000000000000000, -0.000000000000000000 ) ) ;
#213 = ORIENTED_EDGE ( 'NONE', *, *, #207, .T. ) ;
#214 = ORIENTED_EDGE ( 'NONE', *, *, #136, .F. ) ;
#215 = APPROVAL_DATE_TIME ( #68, #27 ) ;
#216 = CARTESIAN_POINT ( 'NONE',  ( -5.000000000000000000, 0.000000000000000000, 5.000000000000000000 ) ) ;
#217 = APPLICATION_PROTOCOL_DEFINITION ( 'international standard', 'config_control_design', 1994, #129 ) ;
#218 = CARTESIAN_POINT ( 'NONE',  ( 0.000000000000000000, 0.000000000000000000, 5.000000000000000000 ) ) ;
#219 = ORIENTED_EDGE ( 'NONE', *, *, #75, .F. ) ;
#220 = DATE_AND_TIME ( #146, #178 ) ;
#221 = CARTESIAN_POINT ( 'NONE',  ( -2.500000000000000000, 0.000000000000000000, 800.0000000000000000 ) ) ;
#222 = CIRCLE ( 'NONE', #140, 2.500000000000000000 ) ;
#223 = EDGE_LOOP ( 'NONE', ( #37, #154 ) ) ;
#224 = DESIGN_CONTEXT ( 'detailed design', #129, 'design' ) ;
#225 = DIRECTION ( 'NONE',  ( 0.000000000000000000, 0.000000000000000000, 1.000000000000000000 ) ) ;
#226 = CARTESIAN_POINT ( 'NONE',  ( -5.000000000000000000, 0.000000000000000000, 5.000000000000000000 ) ) ;
#227 = VERTEX_POINT ( 'NONE', #6 ) ;
#228 = DIRECTION ( 'NONE',  ( 1.000000000000000000, 0.000000000000000000, 0.000000000000000000 ) ) ;
#229 = AXIS2_PLACEMENT_3D ( 'NONE', #85, #161, #67 ) ;
#230 = EDGE_LOOP ( 'NONE', ( #44, #61 ) ) ;
#231 = CARTESIAN_POINT ( 'NONE',  ( 0.000000000000000000, 0.000000000000000000, 800.0000000000000000 ) ) ;
#232 = VERTEX_POINT ( 'NONE', #112 ) ;
#233 = APPROVAL_PERSON_ORGANIZATION ( #50, #92, #104 ) ;
#234 = CARTESIAN_POINT ( 'NONE',  ( 0.000000000000000000, 0.000000000000000000, 800.0000000000000000 ) ) ;
#235 = ORIENTED_EDGE ( 'NONE', *, *, #157, .F. ) ;
#236 = APPLICATION_CONTEXT ( 'configuration controlled 3d designs of mechanical parts and assemblies' ) ;
#237 = COORDINATED_UNIVERSAL_TIME_OFFSET ( 1, 0, .AHEAD. ) ;
#238 = DIRECTION ( 'NONE',  ( 0.000000000000000000, 0.000000000000000000, 1.000000000000000000 ) ) ;
#239 = APPROVAL_STATUS ( 'not_yet_approved' ) ;
#240 = AXIS2_PLACEMENT_3D ( 'NONE', #218, #90, #54 ) ;
#241 = PERSON_AND_ORGANIZATION_ROLE ( 'creator' ) ;
#242 = FACE_OUTER_BOUND ( 'NONE', #21, .T. ) ;
#243 = DATE_TIME_ROLE ( 'creation_date' ) ;
#244 = DIRECTION ( 'NONE',  ( -1.000000000000000000, 0.000000000000000000, 0.000000000000000000 ) ) ;
#245 = LINE ( 'NONE', #145, #60 ) ;
#246 = DIRECTION ( 'NONE',  ( -0.000000000000000000, -0.000000000000000000, -1.000000000000000000 ) ) ;
#247 = ADVANCED_FACE ( 'NONE', ( #242 ), #71, .T. ) ;
#248 = DIRECTION ( 'NONE',  ( 0.000000000000000000, 0.000000000000000000, 1.000000000000000000 ) ) ;
#249 = DIRECTION ( 'NONE',  ( 0.000000000000000000, 0.000000000000000000, 1.000000000000000000 ) ) ;
#250 = PRODUCT_DEFINITION_FORMATION_WITH_SPECIFIED_SOURCE ( 'LIBOVOLNÝ', '', #100, .NOT_KNOWN. ) ;
#251 = ORIENTED_EDGE ( 'NONE', *, *, #180, .F. ) ;
#252 = DIRECTION ( 'NONE',  ( -0.000000000000000000, -0.000000000000000000, -1.000000000000000000 ) ) ;
#253 = DIRECTION ( 'NONE',  ( 0.000000000000000000, 0.000000000000000000, 1.000000000000000000 ) ) ;
#254 = CIRCLE ( 'NONE', #94, 5.000000000000000000 ) ;
#255 = CC_DESIGN_PERSON_AND_ORGANIZATION_ASSIGNMENT ( #24, #241, ( #250 ) ) ;
ENDSEC;
END-ISO-10303-21;
