ISO-10303-21;
HEADER;
FILE_DESCRIPTION (( 'STEP AP203' ),
    '1' );
FILE_NAME ('a349.STEP',
    '2023-02-13T17:15:34',
    ( '' ),
    ( '' ),
    'SwSTEP 2.0',
    'SolidWorks 2019',
    '' );
FILE_SCHEMA (( 'CONFIG_CONTROL_DESIGN' ));
ENDSEC;

DATA;
#1 = EDGE_LOOP ( 'NONE', ( #166, #83 ) ) ;
#2 = CARTESIAN_POINT ( 'NONE',  ( -0.9499999999999999556, 0.000000000000000000, 125.0000000000000000 ) ) ;
#3 = ORIENTED_EDGE ( 'NONE', *, *, #189, .F. ) ;
#4 = DIRECTION ( 'NONE',  ( -0.000000000000000000, -0.000000000000000000, -1.000000000000000000 ) ) ;
#5 = DIRECTION ( 'NONE',  ( 0.000000000000000000, 0.000000000000000000, 1.000000000000000000 ) ) ;
#6 = EDGE_CURVE ( 'NONE', #9, #204, #183, .T. ) ;
#7 =( LENGTH_UNIT ( ) NAMED_UNIT ( * ) SI_UNIT ( .MILLI., .METRE. ) );
#8 = FACE_OUTER_BOUND ( 'NONE', #237, .T. ) ;
#9 = VERTEX_POINT ( 'NONE', #207 ) ;
#10 = CARTESIAN_POINT ( 'NONE',  ( 0.000000000000000000, 0.000000000000000000, 0.000000000000000000 ) ) ;
#11 = VECTOR ( 'NONE', #125, 1000.000000000000000 ) ;
#12 = PERSON_AND_ORGANIZATION ( #112, #213 ) ;
#13 = DIRECTION ( 'NONE',  ( 0.000000000000000000, 0.000000000000000000, 1.000000000000000000 ) ) ;
#14 = CARTESIAN_POINT ( 'NONE',  ( 0.000000000000000000, 0.000000000000000000, 1.500000000000000000 ) ) ;
#15 = ADVANCED_FACE ( 'NONE', ( #184 ), #56, .T. ) ;
#16 = APPLICATION_PROTOCOL_DEFINITION ( 'international standard', 'config_control_design', 1994, #31 ) ;
#17 = FACE_BOUND ( 'NONE', #47, .T. ) ;
#18 = CALENDAR_DATE ( 2023, 13, 2 ) ;
#19 = DIRECTION ( 'NONE',  ( 1.000000000000000000, 0.000000000000000000, -0.000000000000000000 ) ) ;
#20 = APPROVAL ( #249, 'NEURÈENÝ' ) ;
#21 = CARTESIAN_POINT ( 'NONE',  ( 0.000000000000000000, 0.000000000000000000, 125.0000000000000000 ) ) ;
#22 = PRODUCT_DEFINITION_FORMATION_WITH_SPECIFIED_SOURCE ( 'LIBOVOLNÝ', '', #214, .NOT_KNOWN. ) ;
#23 = DIRECTION ( 'NONE',  ( 0.000000000000000000, 0.000000000000000000, 1.000000000000000000 ) ) ;
#24 = ORIENTED_EDGE ( 'NONE', *, *, #6, .F. ) ;
#25 = VERTEX_POINT ( 'NONE', #148 ) ;
#26 = DIRECTION ( 'NONE',  ( 1.000000000000000000, 0.000000000000000000, 0.000000000000000000 ) ) ;
#27 = ORIENTED_EDGE ( 'NONE', *, *, #189, .T. ) ;
#28 = CC_DESIGN_PERSON_AND_ORGANIZATION_ASSIGNMENT ( #12, #243, ( #155 ) ) ;
#29 = DIRECTION ( 'NONE',  ( -1.000000000000000000, 0.000000000000000000, 0.000000000000000000 ) ) ;
#30 = DIRECTION ( 'NONE',  ( 1.000000000000000000, 0.000000000000000000, 0.000000000000000000 ) ) ;
#31 = APPLICATION_CONTEXT ( 'configuration controlled 3d designs of mechanical parts and assemblies' ) ;
#32 = DIRECTION ( 'NONE',  ( -0.000000000000000000, -0.000000000000000000, -1.000000000000000000 ) ) ;
#33 = ADVANCED_FACE ( 'NONE', ( #197 ), #84, .T. ) ;
#34 = DATE_TIME_ROLE ( 'creation_date' ) ;
#35 = CARTESIAN_POINT ( 'NONE',  ( 0.000000000000000000, 0.000000000000000000, 1.500000000000000000 ) ) ;
#36 = LOCAL_TIME ( 18, 15, 34.00000000000000000, #95 ) ;
#37 = DATE_AND_TIME ( #226, #144 ) ;
#38 = APPROVAL_STATUS ( 'not_yet_approved' ) ;
#39 = CARTESIAN_POINT ( 'NONE',  ( 0.000000000000000000, 0.000000000000000000, 1.500000000000000000 ) ) ;
#40 = EDGE_CURVE ( 'NONE', #9, #212, #241, .T. ) ;
#41 = DIRECTION ( 'NONE',  ( 0.000000000000000000, 0.000000000000000000, 1.000000000000000000 ) ) ;
#42 = CARTESIAN_POINT ( 'NONE',  ( 0.000000000000000000, 0.000000000000000000, 0.000000000000000000 ) ) ;
#43 = CC_DESIGN_DATE_AND_TIME_ASSIGNMENT ( #129, #34, ( #155 ) ) ;
#44 = DIRECTION ( 'NONE',  ( 1.000000000000000000, 0.000000000000000000, 0.000000000000000000 ) ) ;
#45 = DIRECTION ( 'NONE',  ( 1.000000000000000000, 0.000000000000000000, 0.000000000000000000 ) ) ;
#46 = ORIENTED_EDGE ( 'NONE', *, *, #238, .F. ) ;
#47 = EDGE_LOOP ( 'NONE', ( #46, #215 ) ) ;
#48 = AXIS2_PLACEMENT_3D ( 'NONE', #91, #5, #26 ) ;
#49 = DIRECTION ( 'NONE',  ( 0.000000000000000000, 0.000000000000000000, 1.000000000000000000 ) ) ;
#50 =( NAMED_UNIT ( * ) SI_UNIT ( $, .STERADIAN. ) SOLID_ANGLE_UNIT ( ) );
#51 = AXIS2_PLACEMENT_3D ( 'NONE', #251, #67, #157 ) ;
#52 =( NAMED_UNIT ( * ) PLANE_ANGLE_UNIT ( ) SI_UNIT ( $, .RADIAN. ) );
#53 = APPROVAL_ROLE ( '' ) ;
#54 = CARTESIAN_POINT ( 'NONE',  ( 0.000000000000000000, 0.000000000000000000, 125.0000000000000000 ) ) ;
#55 = COORDINATED_UNIVERSAL_TIME_OFFSET ( 1, 0, .AHEAD. ) ;
#56 = CYLINDRICAL_SURFACE ( 'NONE', #113, 2.000000000000000000 ) ;
#57 = PERSON_AND_ORGANIZATION ( #112, #213 ) ;
#58 = EDGE_CURVE ( 'NONE', #68, #177, #174, .T. ) ;
#59 = UNCERTAINTY_MEASURE_WITH_UNIT (LENGTH_MEASURE( 1.000000000000000082E-05 ), #7, 'distance_accuracy_value', 'NONE');
#60 = PERSON_AND_ORGANIZATION_ROLE ( 'creator' ) ;
#61 = EDGE_LOOP ( 'NONE', ( #3, #137, #142, #126 ) ) ;
#62 = AXIS2_PLACEMENT_3D ( 'NONE', #42, #100, #45 ) ;
#63 = MANIFOLD_SOLID_BREP ( 'Pøidat vysunutím3', #106 ) ;
#64 = DIRECTION ( 'NONE',  ( -0.000000000000000000, -0.000000000000000000, -1.000000000000000000 ) ) ;
#65 = EDGE_CURVE ( 'NONE', #105, #204, #162, .T. ) ;
#66 = CIRCLE ( 'NONE', #236, 2.000000000000000000 ) ;
#67 = DIRECTION ( 'NONE',  ( 0.000000000000000000, 0.000000000000000000, 1.000000000000000000 ) ) ;
#68 = VERTEX_POINT ( 'NONE', #2 ) ;
#69 = PLANE ( 'NONE',  #254 ) ;
#70 = EDGE_CURVE ( 'NONE', #72, #68, #154, .T. ) ;
#71 = VECTOR ( 'NONE', #153, 1000.000000000000000 ) ;
#72 = VERTEX_POINT ( 'NONE', #159 ) ;
#73 = VECTOR ( 'NONE', #135, 1000.000000000000000 ) ;
#74 = CC_DESIGN_PERSON_AND_ORGANIZATION_ASSIGNMENT ( #187, #77, ( #225 ) ) ;
#75 = DIRECTION ( 'NONE',  ( -0.000000000000000000, -0.000000000000000000, -1.000000000000000000 ) ) ;
#76 = CC_DESIGN_APPROVAL ( #20, ( #225 ) ) ;
#77 = PERSON_AND_ORGANIZATION_ROLE ( 'classification_officer' ) ;
#78 = PERSON_AND_ORGANIZATION_ROLE ( 'design_supplier' ) ;
#79 = LOCAL_TIME ( 18, 15, 34.00000000000000000, #202 ) ;
#80 = COORDINATED_UNIVERSAL_TIME_OFFSET ( 1, 0, .AHEAD. ) ;
#81 = APPROVAL_ROLE ( '' ) ;
#82 =( GEOMETRIC_REPRESENTATION_CONTEXT ( 3 ) GLOBAL_UNCERTAINTY_ASSIGNED_CONTEXT ( ( #59 ) ) GLOBAL_UNIT_ASSIGNED_CONTEXT ( ( #7, #52, #50 ) ) REPRESENTATION_CONTEXT ( 'NONE', 'WORKASPACE' ) );
#83 = ORIENTED_EDGE ( 'NONE', *, *, #132, .T. ) ;
#84 = CYLINDRICAL_SURFACE ( 'NONE', #146, 2.000000000000000000 ) ;
#85 = EDGE_LOOP ( 'NONE', ( #161, #27, #156, #24 ) ) ;
#86 = DIRECTION ( 'NONE',  ( -1.000000000000000000, 0.000000000000000000, 0.000000000000000000 ) ) ;
#87 = AXIS2_PLACEMENT_3D ( 'NONE', #208, #41, #191 ) ;
#88 = PRODUCT_DEFINITION_SHAPE ( 'NONE', 'NONE',  #155 ) ;
#89 = CARTESIAN_POINT ( 'NONE',  ( 0.000000000000000000, 0.000000000000000000, 0.000000000000000000 ) ) ;
#90 = EDGE_CURVE ( 'NONE', #25, #177, #246, .T. ) ;
#91 = CARTESIAN_POINT ( 'NONE',  ( 0.000000000000000000, 0.000000000000000000, 125.0000000000000000 ) ) ;
#92 = DIRECTION ( 'NONE',  ( 0.000000000000000000, 0.000000000000000000, 1.000000000000000000 ) ) ;
#93 = ORIENTED_EDGE ( 'NONE', *, *, #216, .F. ) ;
#94 = APPROVAL_STATUS ( 'not_yet_approved' ) ;
#95 = COORDINATED_UNIVERSAL_TIME_OFFSET ( 1, 0, .AHEAD. ) ;
#96 = CIRCLE ( 'NONE', #130, 0.9499999999999999556 ) ;
#97 = ORIENTED_EDGE ( 'NONE', *, *, #232, .F. ) ;
#98 = ADVANCED_FACE ( 'NONE', ( #239 ), #240, .T. ) ;
#99 = DATE_TIME_ROLE ( 'classification_date' ) ;
#100 = DIRECTION ( 'NONE',  ( 0.000000000000000000, 0.000000000000000000, 1.000000000000000000 ) ) ;
#101 = DIRECTION ( 'NONE',  ( 0.000000000000000000, 0.000000000000000000, 1.000000000000000000 ) ) ;
#102 = AXIS2_PLACEMENT_3D ( 'NONE', #14, #203, #190 ) ;
#103 = ADVANCED_FACE ( 'NONE', ( #8 ), #160, .T. ) ;
#104 = CARTESIAN_POINT ( 'NONE',  ( 2.000000000000000000, 2.449293598294706414E-16, 1.500000000000000000 ) ) ;
#105 = VERTEX_POINT ( 'NONE', #131 ) ;
#106 = CLOSED_SHELL ( 'NONE', ( #103, #15, #33, #117, #140, #98, #128 ) ) ;
#107 = PRODUCT_RELATED_PRODUCT_CATEGORY ( 'detail', '', ( #214 ) ) ;
#108 = ORIENTED_EDGE ( 'NONE', *, *, #58, .T. ) ;
#109 = DIRECTION ( 'NONE',  ( 1.000000000000000000, 0.000000000000000000, 0.000000000000000000 ) ) ;
#110 = ORIENTED_EDGE ( 'NONE', *, *, #70, .F. ) ;
#111 = CC_DESIGN_APPROVAL ( #169, ( #155 ) ) ;
#112 = PERSON ( 'NEURÈENÝ', 'NEURÈENÝ', 'NEURÈENÝ', ('NEURÈENÝ'), ('NEURÈENÝ'), ('NEURÈENÝ') ) ;
#113 = AXIS2_PLACEMENT_3D ( 'NONE', #39, #188, #250 ) ;
#114 = DIRECTION ( 'NONE',  ( -1.000000000000000000, 0.000000000000000000, 0.000000000000000000 ) ) ;
#115 = APPROVAL_DATE_TIME ( #37, #20 ) ;
#116 = LOCAL_TIME ( 18, 15, 34.00000000000000000, #80 ) ;
#117 = ADVANCED_FACE ( 'NONE', ( #17, #228 ), #201, .T. ) ;
#118 = APPROVAL_DATE_TIME ( #247, #169 ) ;
#119 = CARTESIAN_POINT ( 'NONE',  ( 0.000000000000000000, 0.000000000000000000, 125.0000000000000000 ) ) ;
#120 = CC_DESIGN_SECURITY_CLASSIFICATION ( #225, ( #22 ) ) ;
#121 = CARTESIAN_POINT ( 'NONE',  ( 0.9499999999999999556, 1.163414459189985682E-16, 125.0000000000000000 ) ) ;
#122 = ORIENTED_EDGE ( 'NONE', *, *, #232, .T. ) ;
#123 = CIRCLE ( 'NONE', #62, 2.000000000000000000 ) ;
#124 = ORIENTED_EDGE ( 'NONE', *, *, #70, .T. ) ;
#125 = DIRECTION ( 'NONE',  ( -0.000000000000000000, -0.000000000000000000, -1.000000000000000000 ) ) ;
#126 = ORIENTED_EDGE ( 'NONE', *, *, #216, .T. ) ;
#127 = COORDINATED_UNIVERSAL_TIME_OFFSET ( 1, 0, .AHEAD. ) ;
#128 = ADVANCED_FACE ( 'NONE', ( #172 ), #69, .T. ) ;
#129 = DATE_AND_TIME ( #151, #36 ) ;
#130 = AXIS2_PLACEMENT_3D ( 'NONE', #21, #101, #30 ) ;
#131 = CARTESIAN_POINT ( 'NONE',  ( 2.000000000000000000, 2.449293598294706414E-16, 0.000000000000000000 ) ) ;
#132 = EDGE_CURVE ( 'NONE', #212, #9, #66, .T. ) ;
#133 = CALENDAR_DATE ( 2023, 13, 2 ) ;
#134 = PERSON_AND_ORGANIZATION ( #112, #213 ) ;
#135 = DIRECTION ( 'NONE',  ( -0.000000000000000000, -0.000000000000000000, -1.000000000000000000 ) ) ;
#136 = AXIS2_PLACEMENT_3D ( 'NONE', #35, #49, #198 ) ;
#137 = ORIENTED_EDGE ( 'NONE', *, *, #40, .F. ) ;
#138 = LINE ( 'NONE', #235, #71 ) ;
#139 = CC_DESIGN_APPROVAL ( #176, ( #22 ) ) ;
#140 = ADVANCED_FACE ( 'NONE', ( #231 ), #233, .F. ) ;
#141 = CARTESIAN_POINT ( 'NONE',  ( -0.9499999999999999556, 0.000000000000000000, 1.500000000000000000 ) ) ;
#142 = ORIENTED_EDGE ( 'NONE', *, *, #6, .T. ) ;
#143 = ADVANCED_BREP_SHAPE_REPRESENTATION ( 'a349', ( #63, #186 ), #82 ) ;
#144 = LOCAL_TIME ( 18, 15, 34.00000000000000000, #127 ) ;
#145 = DIRECTION ( 'NONE',  ( 0.000000000000000000, 0.000000000000000000, 1.000000000000000000 ) ) ;
#146 = AXIS2_PLACEMENT_3D ( 'NONE', #220, #75, #29 ) ;
#147 = CC_DESIGN_DATE_AND_TIME_ASSIGNMENT ( #200, #99, ( #225 ) ) ;
#148 = CARTESIAN_POINT ( 'NONE',  ( 0.9499999999999999556, 1.163414459189985682E-16, 1.500000000000000000 ) ) ;
#149 = ORIENTED_EDGE ( 'NONE', *, *, #65, .F. ) ;
#150 = PERSON_AND_ORGANIZATION ( #112, #213 ) ;
#151 = CALENDAR_DATE ( 2023, 13, 2 ) ;
#152 = ORIENTED_EDGE ( 'NONE', *, *, #242, .F. ) ;
#153 = DIRECTION ( 'NONE',  ( -0.000000000000000000, -0.000000000000000000, -1.000000000000000000 ) ) ;
#154 = CIRCLE ( 'NONE', #48, 0.9499999999999999556 ) ;
#155 = PRODUCT_DEFINITION ( 'NEZNÁMÝ', '', #22, #248 ) ;
#156 = ORIENTED_EDGE ( 'NONE', *, *, #65, .T. ) ;
#157 = DIRECTION ( 'NONE',  ( 1.000000000000000000, 0.000000000000000000, -0.000000000000000000 ) ) ;
#158 = ORIENTED_EDGE ( 'NONE', *, *, #242, .T. ) ;
#159 = CARTESIAN_POINT ( 'NONE',  ( 0.9499999999999999556, 1.163414459189985682E-16, 125.0000000000000000 ) ) ;
#160 = CYLINDRICAL_SURFACE ( 'NONE', #253, 0.9499999999999999556 ) ;
#161 = ORIENTED_EDGE ( 'NONE', *, *, #132, .F. ) ;
#162 = CIRCLE ( 'NONE', #181, 2.000000000000000000 ) ;
#163 = CALENDAR_DATE ( 2023, 13, 2 ) ;
#164 = EDGE_LOOP ( 'NONE', ( #97, #152, #108, #180 ) ) ;
#165 = PERSON_AND_ORGANIZATION_ROLE ( 'design_owner' ) ;
#166 = ORIENTED_EDGE ( 'NONE', *, *, #40, .T. ) ;
#167 = ORIENTED_EDGE ( 'NONE', *, *, #90, .T. ) ;
#168 = AXIS2_PLACEMENT_3D ( 'NONE', #179, #32, #114 ) ;
#169 = APPROVAL ( #94, 'NEURÈENÝ' ) ;
#170 = APPLICATION_CONTEXT ( 'configuration controlled 3d designs of mechanical parts and assemblies' ) ;
#171 = LINE ( 'NONE', #121, #229 ) ;
#172 = FACE_OUTER_BOUND ( 'NONE', #175, .T. ) ;
#173 = EDGE_LOOP ( 'NONE', ( #93, #149 ) ) ;
#174 = LINE ( 'NONE', #178, #11 ) ;
#175 = EDGE_LOOP ( 'NONE', ( #158, #124 ) ) ;
#176 = APPROVAL ( #38, 'NEURÈENÝ' ) ;
#177 = VERTEX_POINT ( 'NONE', #141 ) ;
#178 = CARTESIAN_POINT ( 'NONE',  ( -0.9499999999999999556, 0.000000000000000000, 125.0000000000000000 ) ) ;
#179 = CARTESIAN_POINT ( 'NONE',  ( 0.000000000000000000, 0.000000000000000000, 125.0000000000000000 ) ) ;
#180 = ORIENTED_EDGE ( 'NONE', *, *, #238, .T. ) ;
#181 = AXIS2_PLACEMENT_3D ( 'NONE', #89, #145, #194 ) ;
#182 = PERSON_AND_ORGANIZATION ( #112, #213 ) ;
#183 = LINE ( 'NONE', #223, #73 ) ;
#184 = FACE_OUTER_BOUND ( 'NONE', #85, .T. ) ;
#185 = MECHANICAL_CONTEXT ( 'NONE', #170, 'mechanical' ) ;
#186 = AXIS2_PLACEMENT_3D ( 'NONE', #10, #13, #205 ) ;
#187 = PERSON_AND_ORGANIZATION ( #112, #213 ) ;
#188 = DIRECTION ( 'NONE',  ( -0.000000000000000000, -0.000000000000000000, -1.000000000000000000 ) ) ;
#189 = EDGE_CURVE ( 'NONE', #212, #105, #138, .T. ) ;
#190 = DIRECTION ( 'NONE',  ( 1.000000000000000000, 0.000000000000000000, -0.000000000000000000 ) ) ;
#191 = DIRECTION ( 'NONE',  ( 1.000000000000000000, 0.000000000000000000, 0.000000000000000000 ) ) ;
#192 = APPROVAL_PERSON_ORGANIZATION ( #150, #176, #81 ) ;
#193 = CC_DESIGN_PERSON_AND_ORGANIZATION_ASSIGNMENT ( #227, #60, ( #22 ) ) ;
#194 = DIRECTION ( 'NONE',  ( 1.000000000000000000, 0.000000000000000000, 0.000000000000000000 ) ) ;
#195 = APPLICATION_PROTOCOL_DEFINITION ( 'international standard', 'config_control_design', 1994, #170 ) ;
#196 = CIRCLE ( 'NONE', #87, 0.9499999999999999556 ) ;
#197 = FACE_OUTER_BOUND ( 'NONE', #61, .T. ) ;
#198 = DIRECTION ( 'NONE',  ( 1.000000000000000000, 0.000000000000000000, 0.000000000000000000 ) ) ;
#199 = APPROVAL_DATE_TIME ( #206, #176 ) ;
#200 = DATE_AND_TIME ( #18, #116 ) ;
#201 = PLANE ( 'NONE',  #102 ) ;
#202 = COORDINATED_UNIVERSAL_TIME_OFFSET ( 1, 0, .AHEAD. ) ;
#203 = DIRECTION ( 'NONE',  ( 0.000000000000000000, 0.000000000000000000, 1.000000000000000000 ) ) ;
#204 = VERTEX_POINT ( 'NONE', #209 ) ;
#205 = DIRECTION ( 'NONE',  ( 1.000000000000000000, 0.000000000000000000, 0.000000000000000000 ) ) ;
#206 = DATE_AND_TIME ( #133, #245 ) ;
#207 = CARTESIAN_POINT ( 'NONE',  ( -2.000000000000000000, 0.000000000000000000, 1.500000000000000000 ) ) ;
#208 = CARTESIAN_POINT ( 'NONE',  ( 0.000000000000000000, 0.000000000000000000, 1.500000000000000000 ) ) ;
#209 = CARTESIAN_POINT ( 'NONE',  ( -2.000000000000000000, 0.000000000000000000, 0.000000000000000000 ) ) ;
#210 = CC_DESIGN_PERSON_AND_ORGANIZATION_ASSIGNMENT ( #222, #165, ( #214 ) ) ;
#211 = CARTESIAN_POINT ( 'NONE',  ( 0.000000000000000000, 0.000000000000000000, 1.500000000000000000 ) ) ;
#212 = VERTEX_POINT ( 'NONE', #104 ) ;
#213 = ORGANIZATION ( 'NEURÈENÝ', 'NEURÈENÝ', '' ) ;
#214 = PRODUCT ( 'a349', 'a349', '', ( #185 ) ) ;
#215 = ORIENTED_EDGE ( 'NONE', *, *, #90, .F. ) ;
#216 = EDGE_CURVE ( 'NONE', #204, #105, #123, .T. ) ;
#217 = APPROVAL_PERSON_ORGANIZATION ( #182, #169, #244 ) ;
#218 = CARTESIAN_POINT ( 'NONE',  ( 0.000000000000000000, 0.000000000000000000, 1.500000000000000000 ) ) ;
#219 = SECURITY_CLASSIFICATION_LEVEL ( 'unclassified' ) ;
#220 = CARTESIAN_POINT ( 'NONE',  ( 0.000000000000000000, 0.000000000000000000, 1.500000000000000000 ) ) ;
#221 = ORIENTED_EDGE ( 'NONE', *, *, #58, .F. ) ;
#222 = PERSON_AND_ORGANIZATION ( #112, #213 ) ;
#223 = CARTESIAN_POINT ( 'NONE',  ( -2.000000000000000000, 0.000000000000000000, 1.500000000000000000 ) ) ;
#224 = SHAPE_DEFINITION_REPRESENTATION ( #88, #143 ) ;
#225 = SECURITY_CLASSIFICATION ( '', '', #219 ) ;
#226 = CALENDAR_DATE ( 2023, 13, 2 ) ;
#227 = PERSON_AND_ORGANIZATION ( #112, #213 ) ;
#228 = FACE_OUTER_BOUND ( 'NONE', #1, .T. ) ;
#229 = VECTOR ( 'NONE', #64, 1000.000000000000000 ) ;
#230 = DIRECTION ( 'NONE',  ( 0.000000000000000000, 0.000000000000000000, 1.000000000000000000 ) ) ;
#231 = FACE_OUTER_BOUND ( 'NONE', #173, .T. ) ;
#232 = EDGE_CURVE ( 'NONE', #72, #25, #171, .T. ) ;
#233 = PLANE ( 'NONE',  #51 ) ;
#234 = CC_DESIGN_PERSON_AND_ORGANIZATION_ASSIGNMENT ( #134, #78, ( #22 ) ) ;
#235 = CARTESIAN_POINT ( 'NONE',  ( 2.000000000000000000, 2.449293598294706414E-16, 1.500000000000000000 ) ) ;
#236 = AXIS2_PLACEMENT_3D ( 'NONE', #211, #230, #44 ) ;
#237 = EDGE_LOOP ( 'NONE', ( #110, #122, #167, #221 ) ) ;
#238 = EDGE_CURVE ( 'NONE', #177, #25, #196, .T. ) ;
#239 = FACE_OUTER_BOUND ( 'NONE', #164, .T. ) ;
#240 = CYLINDRICAL_SURFACE ( 'NONE', #168, 0.9499999999999999556 ) ;
#241 = CIRCLE ( 'NONE', #136, 2.000000000000000000 ) ;
#242 = EDGE_CURVE ( 'NONE', #68, #72, #96, .T. ) ;
#243 = PERSON_AND_ORGANIZATION_ROLE ( 'creator' ) ;
#244 = APPROVAL_ROLE ( '' ) ;
#245 = LOCAL_TIME ( 18, 15, 34.00000000000000000, #55 ) ;
#246 = CIRCLE ( 'NONE', #252, 0.9499999999999999556 ) ;
#247 = DATE_AND_TIME ( #163, #79 ) ;
#248 = DESIGN_CONTEXT ( 'detailed design', #31, 'design' ) ;
#249 = APPROVAL_STATUS ( 'not_yet_approved' ) ;
#250 = DIRECTION ( 'NONE',  ( -1.000000000000000000, 0.000000000000000000, 0.000000000000000000 ) ) ;
#251 = CARTESIAN_POINT ( 'NONE',  ( 0.000000000000000000, 0.000000000000000000, 0.000000000000000000 ) ) ;
#252 = AXIS2_PLACEMENT_3D ( 'NONE', #218, #92, #109 ) ;
#253 = AXIS2_PLACEMENT_3D ( 'NONE', #54, #4, #86 ) ;
#254 = AXIS2_PLACEMENT_3D ( 'NONE', #119, #23, #19 ) ;
#255 = APPROVAL_PERSON_ORGANIZATION ( #57, #20, #53 ) ;
ENDSEC;
END-ISO-10303-21;
