ISO-10303-21;
HEADER;
FILE_DESCRIPTION (( 'STEP AP203' ),
    '1' );
FILE_NAME ('b4f7.STEP',
    '2023-02-13T11:30:52',
    ( '' ),
    ( '' ),
    'SwSTEP 2.0',
    'SolidWorks 2019',
    '' );
FILE_SCHEMA (( 'CONFIG_CONTROL_DESIGN' ));
ENDSEC;

DATA;
#1 = APPROVAL_DATE_TIME ( #17, #71 ) ;
#2 = EDGE_CURVE ( 'NONE', #242, #159, #35, .T. ) ;
#3 = PERSON_AND_ORGANIZATION_ROLE ( 'classification_officer' ) ;
#4 = ORIENTED_EDGE ( 'NONE', *, *, #89, .F. ) ;
#5 = FACE_OUTER_BOUND ( 'NONE', #136, .T. ) ;
#6 = DIRECTION ( 'NONE',  ( 1.000000000000000000, 0.000000000000000000, -0.000000000000000000 ) ) ;
#7 = LOCAL_TIME ( 12, 30, 52.00000000000000000, #202 ) ;
#8 = ORIENTED_EDGE ( 'NONE', *, *, #111, .F. ) ;
#9 = DIRECTION ( 'NONE',  ( -0.000000000000000000, -0.000000000000000000, -1.000000000000000000 ) ) ;
#10 = VERTEX_POINT ( 'NONE', #229 ) ;
#11 = DIRECTION ( 'NONE',  ( 0.000000000000000000, 0.000000000000000000, 1.000000000000000000 ) ) ;
#12 = CARTESIAN_POINT ( 'NONE',  ( 0.000000000000000000, 0.000000000000000000, 0.000000000000000000 ) ) ;
#13 = CIRCLE ( 'NONE', #61, 9.000000000000000000 ) ;
#14 = CALENDAR_DATE ( 2023, 13, 2 ) ;
#15 =( LENGTH_UNIT ( ) NAMED_UNIT ( * ) SI_UNIT ( .MILLI., .METRE. ) );
#16 = DIRECTION ( 'NONE',  ( -1.000000000000000000, 0.000000000000000000, 0.000000000000000000 ) ) ;
#17 = DATE_AND_TIME ( #14, #126 ) ;
#18 = FACE_OUTER_BOUND ( 'NONE', #186, .T. ) ;
#19 = DIRECTION ( 'NONE',  ( -0.000000000000000000, -0.000000000000000000, -1.000000000000000000 ) ) ;
#20 = PLANE ( 'NONE',  #156 ) ;
#21 = EDGE_CURVE ( 'NONE', #46, #196, #241, .T. ) ;
#22 = AXIS2_PLACEMENT_3D ( 'NONE', #27, #87, #146 ) ;
#23 = AXIS2_PLACEMENT_3D ( 'NONE', #48, #9, #249 ) ;
#24 = EDGE_LOOP ( 'NONE', ( #41, #154 ) ) ;
#25 = PERSON_AND_ORGANIZATION_ROLE ( 'design_supplier' ) ;
#26 = DATE_AND_TIME ( #62, #7 ) ;
#27 = CARTESIAN_POINT ( 'NONE',  ( 0.000000000000000000, 0.000000000000000000, 0.000000000000000000 ) ) ;
#28 = DIRECTION ( 'NONE',  ( 1.000000000000000000, 0.000000000000000000, -0.000000000000000000 ) ) ;
#29 = CARTESIAN_POINT ( 'NONE',  ( -9.000000000000000000, 0.000000000000000000, 6.500000000000000000 ) ) ;
#30 = CYLINDRICAL_SURFACE ( 'NONE', #167, 6.000000000000000888 ) ;
#31 = CIRCLE ( 'NONE', #83, 6.000000000000000888 ) ;
#32 = CC_DESIGN_DATE_AND_TIME_ASSIGNMENT ( #181, #243, ( #238 ) ) ;
#33 = AXIS2_PLACEMENT_3D ( 'NONE', #68, #37, #6 ) ;
#34 = PRODUCT_RELATED_PRODUCT_CATEGORY ( 'detail', '', ( #103 ) ) ;
#35 = CIRCLE ( 'NONE', #22, 9.000000000000000000 ) ;
#36 = APPLICATION_CONTEXT ( 'configuration controlled 3d designs of mechanical parts and assemblies' ) ;
#37 = DIRECTION ( 'NONE',  ( 0.000000000000000000, 0.000000000000000000, 1.000000000000000000 ) ) ;
#38 = CARTESIAN_POINT ( 'NONE',  ( 0.000000000000000000, 0.000000000000000000, 6.500000000000000000 ) ) ;
#39 = ORIENTED_EDGE ( 'NONE', *, *, #54, .F. ) ;
#40 = ADVANCED_FACE ( 'NONE', ( #188 ), #177, .F. ) ;
#41 = ORIENTED_EDGE ( 'NONE', *, *, #127, .T. ) ;
#42 = DATE_TIME_ROLE ( 'creation_date' ) ;
#43 = DATE_AND_TIME ( #149, #173 ) ;
#44 = ORIENTED_EDGE ( 'NONE', *, *, #144, .T. ) ;
#45 = PERSON_AND_ORGANIZATION ( #60, #91 ) ;
#46 = VERTEX_POINT ( 'NONE', #142 ) ;
#47 = CIRCLE ( 'NONE', #78, 6.000000000000000888 ) ;
#48 = CARTESIAN_POINT ( 'NONE',  ( 0.000000000000000000, 0.000000000000000000, 6.500000000000000000 ) ) ;
#49 = CARTESIAN_POINT ( 'NONE',  ( -9.000000000000000000, 0.000000000000000000, 0.000000000000000000 ) ) ;
#50 = CARTESIAN_POINT ( 'NONE',  ( 0.000000000000000000, 0.000000000000000000, 6.500000000000000000 ) ) ;
#51 = DIRECTION ( 'NONE',  ( 0.000000000000000000, 0.000000000000000000, 1.000000000000000000 ) ) ;
#52 = CIRCLE ( 'NONE', #237, 9.000000000000000000 ) ;
#53 = UNCERTAINTY_MEASURE_WITH_UNIT (LENGTH_MEASURE( 1.000000000000000082E-05 ), #15, 'distance_accuracy_value', 'NONE');
#54 = EDGE_CURVE ( 'NONE', #196, #242, #226, .T. ) ;
#55 = AXIS2_PLACEMENT_3D ( 'NONE', #38, #99, #217 ) ;
#56 = ORIENTED_EDGE ( 'NONE', *, *, #89, .T. ) ;
#57 = MANIFOLD_SOLID_BREP ( 'Pøidat vysunutím3', #212 ) ;
#58 = PERSON_AND_ORGANIZATION ( #60, #91 ) ;
#59 = DIRECTION ( 'NONE',  ( 0.000000000000000000, 0.000000000000000000, 1.000000000000000000 ) ) ;
#60 = PERSON ( 'NEURÈENÝ', 'NEURÈENÝ', 'NEURÈENÝ', ('NEURÈENÝ'), ('NEURÈENÝ'), ('NEURÈENÝ') ) ;
#61 = AXIS2_PLACEMENT_3D ( 'NONE', #147, #201, #104 ) ;
#62 = CALENDAR_DATE ( 2023, 13, 2 ) ;
#63 = CC_DESIGN_PERSON_AND_ORGANIZATION_ASSIGNMENT ( #231, #224, ( #236 ) ) ;
#64 = CYLINDRICAL_SURFACE ( 'NONE', #163, 9.000000000000000000 ) ;
#65 = FACE_BOUND ( 'NONE', #203, .T. ) ;
#66 = ORIENTED_EDGE ( 'NONE', *, *, #111, .T. ) ;
#67 = CIRCLE ( 'NONE', #253, 6.000000000000000888 ) ;
#68 = CARTESIAN_POINT ( 'NONE',  ( 0.000000000000000000, 0.000000000000000000, 0.000000000000000000 ) ) ;
#69 = AXIS2_PLACEMENT_3D ( 'NONE', #204, #206, #184 ) ;
#70 = COORDINATED_UNIVERSAL_TIME_OFFSET ( 1, 0, .AHEAD. ) ;
#71 = APPROVAL ( #84, 'NEURÈENÝ' ) ;
#72 = CARTESIAN_POINT ( 'NONE',  ( 0.000000000000000000, 0.000000000000000000, 6.500000000000000000 ) ) ;
#73 = FACE_OUTER_BOUND ( 'NONE', #101, .T. ) ;
#74 = SHAPE_DEFINITION_REPRESENTATION ( #151, #141 ) ;
#75 = APPLICATION_PROTOCOL_DEFINITION ( 'international standard', 'config_control_design', 1994, #214 ) ;
#76 = VECTOR ( 'NONE', #165, 1000.000000000000000 ) ;
#77 = ADVANCED_FACE ( 'NONE', ( #73 ), #20, .T. ) ;
#78 = AXIS2_PLACEMENT_3D ( 'NONE', #50, #171, #172 ) ;
#79 = APPROVAL ( #189, 'NEURÈENÝ' ) ;
#80 = APPROVAL_DATE_TIME ( #26, #157 ) ;
#81 = ORIENTED_EDGE ( 'NONE', *, *, #107, .F. ) ;
#82 = CARTESIAN_POINT ( 'NONE',  ( 9.000000000000000000, 1.102182119232617517E-15, 0.000000000000000000 ) ) ;
#83 = AXIS2_PLACEMENT_3D ( 'NONE', #106, #199, #232 ) ;
#84 = APPROVAL_STATUS ( 'not_yet_approved' ) ;
#85 = LINE ( 'NONE', #228, #76 ) ;
#86 = DIRECTION ( 'NONE',  ( 1.000000000000000000, 0.000000000000000000, 0.000000000000000000 ) ) ;
#87 = DIRECTION ( 'NONE',  ( 0.000000000000000000, 0.000000000000000000, 1.000000000000000000 ) ) ;
#88 = DIRECTION ( 'NONE',  ( -0.000000000000000000, -0.000000000000000000, -1.000000000000000000 ) ) ;
#89 = EDGE_CURVE ( 'NONE', #46, #159, #233, .T. ) ;
#90 = DIRECTION ( 'NONE',  ( 1.000000000000000000, 0.000000000000000000, 0.000000000000000000 ) ) ;
#91 = ORGANIZATION ( 'NEURÈENÝ', 'NEURÈENÝ', '' ) ;
#92 = ORIENTED_EDGE ( 'NONE', *, *, #230, .T. ) ;
#93 = CARTESIAN_POINT ( 'NONE',  ( 0.000000000000000000, 0.000000000000000000, 6.500000000000000000 ) ) ;
#94 = CC_DESIGN_PERSON_AND_ORGANIZATION_ASSIGNMENT ( #45, #25, ( #236 ) ) ;
#95 = DESIGN_CONTEXT ( 'detailed design', #36, 'design' ) ;
#96 = AXIS2_PLACEMENT_3D ( 'NONE', #129, #11, #210 ) ;
#97 = CARTESIAN_POINT ( 'NONE',  ( 0.000000000000000000, 0.000000000000000000, 799.9999999999998863 ) ) ;
#98 = ORIENTED_EDGE ( 'NONE', *, *, #2, .T. ) ;
#99 = DIRECTION ( 'NONE',  ( 0.000000000000000000, 0.000000000000000000, 1.000000000000000000 ) ) ;
#100 = SECURITY_CLASSIFICATION_LEVEL ( 'unclassified' ) ;
#101 = EDGE_LOOP ( 'NONE', ( #176, #240 ) ) ;
#102 = CALENDAR_DATE ( 2023, 13, 2 ) ;
#103 = PRODUCT ( 'b4f7', 'b4f7', '', ( #246 ) ) ;
#104 = DIRECTION ( 'NONE',  ( 1.000000000000000000, 0.000000000000000000, 0.000000000000000000 ) ) ;
#105 = PERSON_AND_ORGANIZATION ( #60, #91 ) ;
#106 = CARTESIAN_POINT ( 'NONE',  ( 0.000000000000000000, 0.000000000000000000, 6.500000000000000000 ) ) ;
#107 = EDGE_CURVE ( 'NONE', #247, #244, #67, .T. ) ;
#108 = PLANE ( 'NONE',  #194 ) ;
#109 = CARTESIAN_POINT ( 'NONE',  ( 0.000000000000000000, 0.000000000000000000, 799.9999999999998863 ) ) ;
#110 =( GEOMETRIC_REPRESENTATION_CONTEXT ( 3 ) GLOBAL_UNCERTAINTY_ASSIGNED_CONTEXT ( ( #53 ) ) GLOBAL_UNIT_ASSIGNED_CONTEXT ( ( #15, #113, #155 ) ) REPRESENTATION_CONTEXT ( 'NONE', 'WORKASPACE' ) );
#111 = EDGE_CURVE ( 'NONE', #135, #10, #47, .T. ) ;
#112 = CC_DESIGN_SECURITY_CLASSIFICATION ( #238, ( #236 ) ) ;
#113 =( NAMED_UNIT ( * ) PLANE_ANGLE_UNIT ( ) SI_UNIT ( $, .RADIAN. ) );
#114 = CC_DESIGN_PERSON_AND_ORGANIZATION_ASSIGNMENT ( #227, #158, ( #175 ) ) ;
#115 = APPROVAL_PERSON_ORGANIZATION ( #58, #71, #164 ) ;
#116 = EDGE_LOOP ( 'NONE', ( #119, #209 ) ) ;
#117 = ADVANCED_FACE ( 'NONE', ( #18 ), #30, .T. ) ;
#118 = ORIENTED_EDGE ( 'NONE', *, *, #200, .F. ) ;
#119 = ORIENTED_EDGE ( 'NONE', *, *, #2, .F. ) ;
#120 = VECTOR ( 'NONE', #88, 1000.000000000000000 ) ;
#121 = ORIENTED_EDGE ( 'NONE', *, *, #127, .F. ) ;
#122 = CARTESIAN_POINT ( 'NONE',  ( -6.000000000000000888, 0.000000000000000000, 6.500000000000000000 ) ) ;
#123 = DIRECTION ( 'NONE',  ( 0.000000000000000000, 0.000000000000000000, 1.000000000000000000 ) ) ;
#124 = PERSON_AND_ORGANIZATION ( #60, #91 ) ;
#125 = FACE_OUTER_BOUND ( 'NONE', #24, .T. ) ;
#126 = LOCAL_TIME ( 12, 30, 52.00000000000000000, #222 ) ;
#127 = EDGE_CURVE ( 'NONE', #196, #46, #52, .T. ) ;
#128 = APPROVAL_ROLE ( '' ) ;
#129 = CARTESIAN_POINT ( 'NONE',  ( 0.000000000000000000, 0.000000000000000000, 799.9999999999998863 ) ) ;
#130 = DIRECTION ( 'NONE',  ( 1.000000000000000000, 0.000000000000000000, -0.000000000000000000 ) ) ;
#131 = CARTESIAN_POINT ( 'NONE',  ( 9.000000000000000000, 1.102182119232617517E-15, 6.500000000000000000 ) ) ;
#132 = EDGE_CURVE ( 'NONE', #244, #10, #225, .T. ) ;
#133 = CC_DESIGN_APPROVAL ( #79, ( #236 ) ) ;
#134 = ADVANCED_FACE ( 'NONE', ( #251 ), #166, .T. ) ;
#135 = VERTEX_POINT ( 'NONE', #122 ) ;
#136 = EDGE_LOOP ( 'NONE', ( #4, #121, #234, #98 ) ) ;
#137 = DATE_AND_TIME ( #145, #216 ) ;
#138 = ORIENTED_EDGE ( 'NONE', *, *, #132, .F. ) ;
#139 = APPROVAL_ROLE ( '' ) ;
#140 = DIRECTION ( 'NONE',  ( -0.000000000000000000, -0.000000000000000000, -1.000000000000000000 ) ) ;
#141 = ADVANCED_BREP_SHAPE_REPRESENTATION ( 'b4f7', ( #57, #170 ), #110 ) ;
#142 = CARTESIAN_POINT ( 'NONE',  ( 9.000000000000000000, 1.102182119232617517E-15, 6.500000000000000000 ) ) ;
#143 = CARTESIAN_POINT ( 'NONE',  ( 6.000000000000000888, 7.347880794884120722E-16, 799.9999999999998863 ) ) ;
#144 = EDGE_CURVE ( 'NONE', #159, #242, #13, .T. ) ;
#145 = CALENDAR_DATE ( 2023, 13, 2 ) ;
#146 = DIRECTION ( 'NONE',  ( 1.000000000000000000, 0.000000000000000000, 0.000000000000000000 ) ) ;
#147 = CARTESIAN_POINT ( 'NONE',  ( 0.000000000000000000, 0.000000000000000000, 0.000000000000000000 ) ) ;
#148 = APPROVAL_PERSON_ORGANIZATION ( #205, #79, #139 ) ;
#149 = CALENDAR_DATE ( 2023, 13, 2 ) ;
#150 = DIRECTION ( 'NONE',  ( 0.000000000000000000, 0.000000000000000000, 1.000000000000000000 ) ) ;
#151 = PRODUCT_DEFINITION_SHAPE ( 'NONE', 'NONE',  #175 ) ;
#152 = APPROVAL_PERSON_ORGANIZATION ( #161, #157, #128 ) ;
#153 = CARTESIAN_POINT ( 'NONE',  ( 0.000000000000000000, 0.000000000000000000, 799.9999999999998863 ) ) ;
#154 = ORIENTED_EDGE ( 'NONE', *, *, #21, .T. ) ;
#155 =( NAMED_UNIT ( * ) SI_UNIT ( $, .STERADIAN. ) SOLID_ANGLE_UNIT ( ) );
#156 = AXIS2_PLACEMENT_3D ( 'NONE', #153, #51, #130 ) ;
#157 = APPROVAL ( #207, 'NEURÈENÝ' ) ;
#158 = PERSON_AND_ORGANIZATION_ROLE ( 'creator' ) ;
#159 = VERTEX_POINT ( 'NONE', #82 ) ;
#160 = VECTOR ( 'NONE', #255, 1000.000000000000000 ) ;
#161 = PERSON_AND_ORGANIZATION ( #60, #91 ) ;
#162 = ORIENTED_EDGE ( 'NONE', *, *, #132, .T. ) ;
#163 = AXIS2_PLACEMENT_3D ( 'NONE', #169, #140, #254 ) ;
#164 = APPROVAL_ROLE ( '' ) ;
#165 = DIRECTION ( 'NONE',  ( -0.000000000000000000, -0.000000000000000000, -1.000000000000000000 ) ) ;
#166 = CYLINDRICAL_SURFACE ( 'NONE', #23, 9.000000000000000000 ) ;
#167 = AXIS2_PLACEMENT_3D ( 'NONE', #109, #192, #16 ) ;
#168 = APPLICATION_PROTOCOL_DEFINITION ( 'international standard', 'config_control_design', 1994, #36 ) ;
#169 = CARTESIAN_POINT ( 'NONE',  ( 0.000000000000000000, 0.000000000000000000, 6.500000000000000000 ) ) ;
#170 = AXIS2_PLACEMENT_3D ( 'NONE', #12, #123, #86 ) ;
#171 = DIRECTION ( 'NONE',  ( 0.000000000000000000, 0.000000000000000000, 1.000000000000000000 ) ) ;
#172 = DIRECTION ( 'NONE',  ( 1.000000000000000000, 0.000000000000000000, 0.000000000000000000 ) ) ;
#173 = LOCAL_TIME ( 12, 30, 52.00000000000000000, #70 ) ;
#174 = ADVANCED_FACE ( 'NONE', ( #223 ), #248, .T. ) ;
#175 = PRODUCT_DEFINITION ( 'NEZNÁMÝ', '', #236, #95 ) ;
#176 = ORIENTED_EDGE ( 'NONE', *, *, #107, .T. ) ;
#177 = PLANE ( 'NONE',  #33 ) ;
#178 = CC_DESIGN_PERSON_AND_ORGANIZATION_ASSIGNMENT ( #124, #180, ( #103 ) ) ;
#179 = COORDINATED_UNIVERSAL_TIME_OFFSET ( 1, 0, .AHEAD. ) ;
#180 = PERSON_AND_ORGANIZATION_ROLE ( 'design_owner' ) ;
#181 = DATE_AND_TIME ( #102, #193 ) ;
#182 = ORIENTED_EDGE ( 'NONE', *, *, #252, .F. ) ;
#183 = CIRCLE ( 'NONE', #96, 6.000000000000000888 ) ;
#184 = DIRECTION ( 'NONE',  ( -1.000000000000000000, 0.000000000000000000, 0.000000000000000000 ) ) ;
#185 = CARTESIAN_POINT ( 'NONE',  ( -9.000000000000000000, 0.000000000000000000, 6.500000000000000000 ) ) ;
#186 = EDGE_LOOP ( 'NONE', ( #182, #162, #92, #118 ) ) ;
#187 = CARTESIAN_POINT ( 'NONE',  ( 6.000000000000000888, 7.347880794884120722E-16, 799.9999999999998863 ) ) ;
#188 = FACE_OUTER_BOUND ( 'NONE', #116, .T. ) ;
#189 = APPROVAL_STATUS ( 'not_yet_approved' ) ;
#190 = CARTESIAN_POINT ( 'NONE',  ( -6.000000000000000888, 0.000000000000000000, 799.9999999999998863 ) ) ;
#191 = ADVANCED_FACE ( 'NONE', ( #5 ), #64, .T. ) ;
#192 = DIRECTION ( 'NONE',  ( -0.000000000000000000, -0.000000000000000000, -1.000000000000000000 ) ) ;
#193 = LOCAL_TIME ( 12, 30, 52.00000000000000000, #179 ) ;
#194 = AXIS2_PLACEMENT_3D ( 'NONE', #93, #59, #28 ) ;
#195 = ORIENTED_EDGE ( 'NONE', *, *, #21, .F. ) ;
#196 = VERTEX_POINT ( 'NONE', #29 ) ;
#197 = CC_DESIGN_APPROVAL ( #157, ( #175 ) ) ;
#198 = APPROVAL_DATE_TIME ( #43, #79 ) ;
#199 = DIRECTION ( 'NONE',  ( 0.000000000000000000, 0.000000000000000000, 1.000000000000000000 ) ) ;
#200 = EDGE_CURVE ( 'NONE', #247, #135, #85, .T. ) ;
#201 = DIRECTION ( 'NONE',  ( 0.000000000000000000, 0.000000000000000000, 1.000000000000000000 ) ) ;
#202 = COORDINATED_UNIVERSAL_TIME_OFFSET ( 1, 0, .AHEAD. ) ;
#203 = EDGE_LOOP ( 'NONE', ( #8, #220 ) ) ;
#204 = CARTESIAN_POINT ( 'NONE',  ( 0.000000000000000000, 0.000000000000000000, 799.9999999999998863 ) ) ;
#205 = PERSON_AND_ORGANIZATION ( #60, #91 ) ;
#206 = DIRECTION ( 'NONE',  ( -0.000000000000000000, -0.000000000000000000, -1.000000000000000000 ) ) ;
#207 = APPROVAL_STATUS ( 'not_yet_approved' ) ;
#208 = ADVANCED_FACE ( 'NONE', ( #65, #125 ), #108, .T. ) ;
#209 = ORIENTED_EDGE ( 'NONE', *, *, #144, .F. ) ;
#210 = DIRECTION ( 'NONE',  ( 1.000000000000000000, 0.000000000000000000, 0.000000000000000000 ) ) ;
#211 = DIRECTION ( 'NONE',  ( 0.000000000000000000, 0.000000000000000000, 1.000000000000000000 ) ) ;
#212 = CLOSED_SHELL ( 'NONE', ( #117, #134, #191, #208, #40, #174, #77 ) ) ;
#213 = ORIENTED_EDGE ( 'NONE', *, *, #200, .T. ) ;
#214 = APPLICATION_CONTEXT ( 'configuration controlled 3d designs of mechanical parts and assemblies' ) ;
#215 = EDGE_LOOP ( 'NONE', ( #138, #81, #213, #66 ) ) ;
#216 = LOCAL_TIME ( 12, 30, 52.00000000000000000, #250 ) ;
#217 = DIRECTION ( 'NONE',  ( 1.000000000000000000, 0.000000000000000000, 0.000000000000000000 ) ) ;
#218 = CC_DESIGN_PERSON_AND_ORGANIZATION_ASSIGNMENT ( #105, #3, ( #238 ) ) ;
#219 = EDGE_LOOP ( 'NONE', ( #195, #56, #44, #39 ) ) ;
#220 = ORIENTED_EDGE ( 'NONE', *, *, #230, .F. ) ;
#221 = VECTOR ( 'NONE', #19, 1000.000000000000000 ) ;
#222 = COORDINATED_UNIVERSAL_TIME_OFFSET ( 1, 0, .AHEAD. ) ;
#223 = FACE_OUTER_BOUND ( 'NONE', #215, .T. ) ;
#224 = PERSON_AND_ORGANIZATION_ROLE ( 'creator' ) ;
#225 = LINE ( 'NONE', #143, #120 ) ;
#226 = LINE ( 'NONE', #185, #221 ) ;
#227 = PERSON_AND_ORGANIZATION ( #60, #91 ) ;
#228 = CARTESIAN_POINT ( 'NONE',  ( -6.000000000000000888, 0.000000000000000000, 799.9999999999998863 ) ) ;
#229 = CARTESIAN_POINT ( 'NONE',  ( 6.000000000000000888, 7.347880794884120722E-16, 6.500000000000000000 ) ) ;
#230 = EDGE_CURVE ( 'NONE', #10, #135, #31, .T. ) ;
#231 = PERSON_AND_ORGANIZATION ( #60, #91 ) ;
#232 = DIRECTION ( 'NONE',  ( 1.000000000000000000, 0.000000000000000000, 0.000000000000000000 ) ) ;
#233 = LINE ( 'NONE', #131, #160 ) ;
#234 = ORIENTED_EDGE ( 'NONE', *, *, #54, .T. ) ;
#235 = DIRECTION ( 'NONE',  ( 1.000000000000000000, 0.000000000000000000, 0.000000000000000000 ) ) ;
#236 = PRODUCT_DEFINITION_FORMATION_WITH_SPECIFIED_SOURCE ( 'LIBOVOLNÝ', '', #103, .NOT_KNOWN. ) ;
#237 = AXIS2_PLACEMENT_3D ( 'NONE', #72, #150, #235 ) ;
#238 = SECURITY_CLASSIFICATION ( '', '', #100 ) ;
#239 = CC_DESIGN_DATE_AND_TIME_ASSIGNMENT ( #137, #42, ( #175 ) ) ;
#240 = ORIENTED_EDGE ( 'NONE', *, *, #252, .T. ) ;
#241 = CIRCLE ( 'NONE', #55, 9.000000000000000000 ) ;
#242 = VERTEX_POINT ( 'NONE', #49 ) ;
#243 = DATE_TIME_ROLE ( 'classification_date' ) ;
#244 = VERTEX_POINT ( 'NONE', #187 ) ;
#245 = CC_DESIGN_APPROVAL ( #71, ( #238 ) ) ;
#246 = MECHANICAL_CONTEXT ( 'NONE', #214, 'mechanical' ) ;
#247 = VERTEX_POINT ( 'NONE', #190 ) ;
#248 = CYLINDRICAL_SURFACE ( 'NONE', #69, 6.000000000000000888 ) ;
#249 = DIRECTION ( 'NONE',  ( -1.000000000000000000, 0.000000000000000000, 0.000000000000000000 ) ) ;
#250 = COORDINATED_UNIVERSAL_TIME_OFFSET ( 1, 0, .AHEAD. ) ;
#251 = FACE_OUTER_BOUND ( 'NONE', #219, .T. ) ;
#252 = EDGE_CURVE ( 'NONE', #244, #247, #183, .T. ) ;
#253 = AXIS2_PLACEMENT_3D ( 'NONE', #97, #211, #90 ) ;
#254 = DIRECTION ( 'NONE',  ( -1.000000000000000000, 0.000000000000000000, 0.000000000000000000 ) ) ;
#255 = DIRECTION ( 'NONE',  ( -0.000000000000000000, -0.000000000000000000, -1.000000000000000000 ) ) ;
ENDSEC;
END-ISO-10303-21;
