ISO-10303-21;
HEADER;
FILE_DESCRIPTION (( 'STEP AP203' ),
    '1' );
FILE_NAME ('c2bc.STEP',
    '2023-02-13T10:37:30',
    ( '' ),
    ( '' ),
    'SwSTEP 2.0',
    'SolidWorks 2019',
    '' );
FILE_SCHEMA (( 'CONFIG_CONTROL_DESIGN' ));
ENDSEC;

DATA;
#1 = CIRCLE ( 'NONE', #158, 9.000000000000000000 ) ;
#2 = DIRECTION ( 'NONE',  ( 0.000000000000000000, 0.000000000000000000, 1.000000000000000000 ) ) ;
#3 = CARTESIAN_POINT ( 'NONE',  ( 0.000000000000000000, 0.000000000000000000, 0.000000000000000000 ) ) ;
#4 = ORIENTED_EDGE ( 'NONE', *, *, #45, .F. ) ;
#5 = VERTEX_POINT ( 'NONE', #149 ) ;
#6 = CIRCLE ( 'NONE', #33, 6.250000000000000000 ) ;
#7 = EDGE_LOOP ( 'NONE', ( #17, #41 ) ) ;
#8 = ADVANCED_FACE ( 'NONE', ( #77 ), #235, .T. ) ;
#9 = VERTEX_POINT ( 'NONE', #16 ) ;
#10 = APPROVAL_ROLE ( '' ) ;
#11 = CIRCLE ( 'NONE', #125, 9.000000000000000000 ) ;
#12 = PERSON_AND_ORGANIZATION ( #59, #137 ) ;
#13 = CARTESIAN_POINT ( 'NONE',  ( -9.000000000000000000, 0.000000000000000000, 7.000000000000000000 ) ) ;
#14 = APPROVAL_DATE_TIME ( #18, #55 ) ;
#15 = DIRECTION ( 'NONE',  ( 0.000000000000000000, 0.000000000000000000, 1.000000000000000000 ) ) ;
#16 = CARTESIAN_POINT ( 'NONE',  ( -6.250000000000000000, 0.000000000000000000, 7.000000000000000000 ) ) ;
#17 = ORIENTED_EDGE ( 'NONE', *, *, #141, .F. ) ;
#18 = DATE_AND_TIME ( #129, #211 ) ;
#19 = AXIS2_PLACEMENT_3D ( 'NONE', #29, #115, #241 ) ;
#20 = APPROVAL_ROLE ( '' ) ;
#21 = ORIENTED_EDGE ( 'NONE', *, *, #57, .T. ) ;
#22 = DIRECTION ( 'NONE',  ( 0.000000000000000000, 0.000000000000000000, 1.000000000000000000 ) ) ;
#23 = AXIS2_PLACEMENT_3D ( 'NONE', #112, #101, #251 ) ;
#24 = CARTESIAN_POINT ( 'NONE',  ( -6.250000000000000000, 0.000000000000000000, 400.0000000000000000 ) ) ;
#25 = DIRECTION ( 'NONE',  ( -0.000000000000000000, -0.000000000000000000, -1.000000000000000000 ) ) ;
#26 = CARTESIAN_POINT ( 'NONE',  ( 0.000000000000000000, 0.000000000000000000, 400.0000000000000000 ) ) ;
#27 = CIRCLE ( 'NONE', #53, 9.000000000000000000 ) ;
#28 = LINE ( 'NONE', #13, #70 ) ;
#29 = CARTESIAN_POINT ( 'NONE',  ( 0.000000000000000000, 0.000000000000000000, 400.0000000000000000 ) ) ;
#30 = DIRECTION ( 'NONE',  ( -0.000000000000000000, -0.000000000000000000, -1.000000000000000000 ) ) ;
#31 = DIRECTION ( 'NONE',  ( -1.000000000000000000, 0.000000000000000000, 0.000000000000000000 ) ) ;
#32 = PERSON_AND_ORGANIZATION_ROLE ( 'design_supplier' ) ;
#33 = AXIS2_PLACEMENT_3D ( 'NONE', #184, #2, #88 ) ;
#34 =( GEOMETRIC_REPRESENTATION_CONTEXT ( 3 ) GLOBAL_UNCERTAINTY_ASSIGNED_CONTEXT ( ( #120 ) ) GLOBAL_UNIT_ASSIGNED_CONTEXT ( ( #183, #196, #38 ) ) REPRESENTATION_CONTEXT ( 'NONE', 'WORKASPACE' ) );
#35 = COORDINATED_UNIVERSAL_TIME_OFFSET ( 1, 0, .AHEAD. ) ;
#36 = FACE_OUTER_BOUND ( 'NONE', #7, .T. ) ;
#37 = ORIENTED_EDGE ( 'NONE', *, *, #213, .T. ) ;
#38 =( NAMED_UNIT ( * ) SI_UNIT ( $, .STERADIAN. ) SOLID_ANGLE_UNIT ( ) );
#39 = APPROVAL_PERSON_ORGANIZATION ( #12, #230, #10 ) ;
#40 = VERTEX_POINT ( 'NONE', #219 ) ;
#41 = ORIENTED_EDGE ( 'NONE', *, *, #123, .F. ) ;
#42 = ORIENTED_EDGE ( 'NONE', *, *, #200, .F. ) ;
#43 = APPROVAL_STATUS ( 'not_yet_approved' ) ;
#44 = DIRECTION ( 'NONE',  ( -0.000000000000000000, -0.000000000000000000, -1.000000000000000000 ) ) ;
#45 = EDGE_CURVE ( 'NONE', #40, #195, #132, .T. ) ;
#46 = CARTESIAN_POINT ( 'NONE',  ( 6.250000000000000000, 7.654042494670957606E-16, 7.000000000000000000 ) ) ;
#47 = SECURITY_CLASSIFICATION_LEVEL ( 'unclassified' ) ;
#48 = DIRECTION ( 'NONE',  ( -1.000000000000000000, 0.000000000000000000, 0.000000000000000000 ) ) ;
#49 = PRODUCT_RELATED_PRODUCT_CATEGORY ( 'detail', '', ( #165 ) ) ;
#50 = PERSON_AND_ORGANIZATION ( #59, #137 ) ;
#51 = AXIS2_PLACEMENT_3D ( 'NONE', #168, #22, #242 ) ;
#52 = EDGE_CURVE ( 'NONE', #62, #113, #92, .T. ) ;
#53 = AXIS2_PLACEMENT_3D ( 'NONE', #69, #227, #54 ) ;
#54 = DIRECTION ( 'NONE',  ( 1.000000000000000000, 0.000000000000000000, 0.000000000000000000 ) ) ;
#55 = APPROVAL ( #43, 'NEURÈENÝ' ) ;
#56 = PRODUCT_DEFINITION_FORMATION_WITH_SPECIFIED_SOURCE ( 'LIBOVOLNÝ', '', #165, .NOT_KNOWN. ) ;
#57 = EDGE_CURVE ( 'NONE', #231, #40, #248, .T. ) ;
#58 = MANIFOLD_SOLID_BREP ( 'Pøidat vysunutím3', #74 ) ;
#59 = PERSON ( 'NEURÈENÝ', 'NEURÈENÝ', 'NEURÈENÝ', ('NEURÈENÝ'), ('NEURÈENÝ'), ('NEURÈENÝ') ) ;
#60 = CYLINDRICAL_SURFACE ( 'NONE', #86, 9.000000000000000000 ) ;
#61 = FACE_OUTER_BOUND ( 'NONE', #131, .T. ) ;
#62 = VERTEX_POINT ( 'NONE', #156 ) ;
#63 = DIRECTION ( 'NONE',  ( 0.000000000000000000, 0.000000000000000000, 1.000000000000000000 ) ) ;
#64 = COORDINATED_UNIVERSAL_TIME_OFFSET ( 1, 0, .AHEAD. ) ;
#65 = AXIS2_PLACEMENT_3D ( 'NONE', #26, #30, #31 ) ;
#66 = PERSON_AND_ORGANIZATION ( #59, #137 ) ;
#67 = DIRECTION ( 'NONE',  ( 0.000000000000000000, 0.000000000000000000, 1.000000000000000000 ) ) ;
#68 = APPROVAL ( #239, 'NEURÈENÝ' ) ;
#69 = CARTESIAN_POINT ( 'NONE',  ( 0.000000000000000000, 0.000000000000000000, 7.000000000000000000 ) ) ;
#70 = VECTOR ( 'NONE', #232, 1000.000000000000000 ) ;
#71 = ADVANCED_FACE ( 'NONE', ( #207 ), #136, .T. ) ;
#72 = CALENDAR_DATE ( 2023, 13, 2 ) ;
#73 = DESIGN_CONTEXT ( 'detailed design', #179, 'design' ) ;
#74 = CLOSED_SHELL ( 'NONE', ( #71, #97, #210, #117, #144, #8, #75 ) ) ;
#75 = ADVANCED_FACE ( 'NONE', ( #225 ), #255, .T. ) ;
#76 = DIRECTION ( 'NONE',  ( 0.000000000000000000, 0.000000000000000000, 1.000000000000000000 ) ) ;
#77 = FACE_OUTER_BOUND ( 'NONE', #240, .T. ) ;
#78 = EDGE_LOOP ( 'NONE', ( #100, #167 ) ) ;
#79 = DATE_AND_TIME ( #215, #121 ) ;
#80 = PERSON_AND_ORGANIZATION ( #59, #137 ) ;
#81 = AXIS2_PLACEMENT_3D ( 'NONE', #147, #44, #203 ) ;
#82 = DIRECTION ( 'NONE',  ( 1.000000000000000000, 0.000000000000000000, 0.000000000000000000 ) ) ;
#83 = PERSON_AND_ORGANIZATION ( #59, #137 ) ;
#84 = PRODUCT_DEFINITION_SHAPE ( 'NONE', 'NONE',  #228 ) ;
#85 = DIRECTION ( 'NONE',  ( 1.000000000000000000, 0.000000000000000000, 0.000000000000000000 ) ) ;
#86 = AXIS2_PLACEMENT_3D ( 'NONE', #169, #154, #48 ) ;
#87 = CIRCLE ( 'NONE', #252, 9.000000000000000000 ) ;
#88 = DIRECTION ( 'NONE',  ( 1.000000000000000000, 0.000000000000000000, 0.000000000000000000 ) ) ;
#89 = APPROVAL_PERSON_ORGANIZATION ( #130, #55, #20 ) ;
#90 = FACE_BOUND ( 'NONE', #229, .T. ) ;
#91 = APPROVAL_PERSON_ORGANIZATION ( #238, #68, #212 ) ;
#92 = LINE ( 'NONE', #172, #245 ) ;
#93 = CC_DESIGN_DATE_AND_TIME_ASSIGNMENT ( #79, #164, ( #228 ) ) ;
#94 = SECURITY_CLASSIFICATION ( '', '', #47 ) ;
#95 = DATE_TIME_ROLE ( 'classification_date' ) ;
#96 = ORIENTED_EDGE ( 'NONE', *, *, #153, .F. ) ;
#97 = ADVANCED_FACE ( 'NONE', ( #188 ), #60, .T. ) ;
#98 = LOCAL_TIME ( 11, 37, 30.00000000000000000, #35 ) ;
#99 = CALENDAR_DATE ( 2023, 13, 2 ) ;
#100 = ORIENTED_EDGE ( 'NONE', *, *, #159, .T. ) ;
#101 = DIRECTION ( 'NONE',  ( 0.000000000000000000, 0.000000000000000000, 1.000000000000000000 ) ) ;
#102 = ORIENTED_EDGE ( 'NONE', *, *, #153, .T. ) ;
#103 = CC_DESIGN_PERSON_AND_ORGANIZATION_ASSIGNMENT ( #80, #146, ( #165 ) ) ;
#104 = ORIENTED_EDGE ( 'NONE', *, *, #141, .T. ) ;
#105 = CIRCLE ( 'NONE', #192, 6.250000000000000000 ) ;
#106 = ORIENTED_EDGE ( 'NONE', *, *, #163, .T. ) ;
#107 = DIRECTION ( 'NONE',  ( -0.000000000000000000, -0.000000000000000000, -1.000000000000000000 ) ) ;
#108 = DIRECTION ( 'NONE',  ( 0.000000000000000000, 0.000000000000000000, 1.000000000000000000 ) ) ;
#109 = PERSON_AND_ORGANIZATION_ROLE ( 'creator' ) ;
#110 = DIRECTION ( 'NONE',  ( 1.000000000000000000, 0.000000000000000000, 0.000000000000000000 ) ) ;
#111 = CARTESIAN_POINT ( 'NONE',  ( 0.000000000000000000, 0.000000000000000000, 7.000000000000000000 ) ) ;
#112 = CARTESIAN_POINT ( 'NONE',  ( 0.000000000000000000, 0.000000000000000000, 0.000000000000000000 ) ) ;
#113 = VERTEX_POINT ( 'NONE', #138 ) ;
#114 = PERSON_AND_ORGANIZATION_ROLE ( 'classification_officer' ) ;
#115 = DIRECTION ( 'NONE',  ( 0.000000000000000000, 0.000000000000000000, 1.000000000000000000 ) ) ;
#116 = DIRECTION ( 'NONE',  ( -0.000000000000000000, -0.000000000000000000, -1.000000000000000000 ) ) ;
#117 = ADVANCED_FACE ( 'NONE', ( #90, #134 ), #249, .T. ) ;
#118 = LOCAL_TIME ( 11, 37, 30.00000000000000000, #124 ) ;
#119 = AXIS2_PLACEMENT_3D ( 'NONE', #182, #67, #224 ) ;
#120 = UNCERTAINTY_MEASURE_WITH_UNIT (LENGTH_MEASURE( 1.000000000000000082E-05 ), #183, 'distance_accuracy_value', 'NONE');
#121 = LOCAL_TIME ( 11, 37, 30.00000000000000000, #162 ) ;
#122 = ORIENTED_EDGE ( 'NONE', *, *, #205, .T. ) ;
#123 = EDGE_CURVE ( 'NONE', #113, #5, #11, .T. ) ;
#124 = COORDINATED_UNIVERSAL_TIME_OFFSET ( 1, 0, .AHEAD. ) ;
#125 = AXIS2_PLACEMENT_3D ( 'NONE', #214, #15, #110 ) ;
#126 = ORIENTED_EDGE ( 'NONE', *, *, #177, .F. ) ;
#127 = APPLICATION_CONTEXT ( 'configuration controlled 3d designs of mechanical parts and assemblies' ) ;
#128 = CIRCLE ( 'NONE', #51, 6.250000000000000000 ) ;
#129 = CALENDAR_DATE ( 2023, 13, 2 ) ;
#130 = PERSON_AND_ORGANIZATION ( #59, #137 ) ;
#131 = EDGE_LOOP ( 'NONE', ( #189, #152, #102, #104 ) ) ;
#132 = LINE ( 'NONE', #202, #191 ) ;
#133 = APPROVAL_DATE_TIME ( #209, #230 ) ;
#134 = FACE_OUTER_BOUND ( 'NONE', #78, .T. ) ;
#135 = ORIENTED_EDGE ( 'NONE', *, *, #213, .F. ) ;
#136 = CYLINDRICAL_SURFACE ( 'NONE', #65, 6.250000000000000000 ) ;
#137 = ORGANIZATION ( 'NEURÈENÝ', 'NEURÈENÝ', '' ) ;
#138 = CARTESIAN_POINT ( 'NONE',  ( 9.000000000000000000, 1.102182119232617714E-15, 0.000000000000000000 ) ) ;
#139 = AXIS2_PLACEMENT_3D ( 'NONE', #233, #76, #243 ) ;
#140 = CC_DESIGN_SECURITY_CLASSIFICATION ( #94, ( #56 ) ) ;
#141 = EDGE_CURVE ( 'NONE', #5, #113, #1, .T. ) ;
#142 = EDGE_LOOP ( 'NONE', ( #42, #155, #122, #247 ) ) ;
#143 = AXIS2_PLACEMENT_3D ( 'NONE', #3, #63, #223 ) ;
#144 = ADVANCED_FACE ( 'NONE', ( #36 ), #185, .F. ) ;
#145 = MECHANICAL_CONTEXT ( 'NONE', #127, 'mechanical' ) ;
#146 = PERSON_AND_ORGANIZATION_ROLE ( 'design_owner' ) ;
#147 = CARTESIAN_POINT ( 'NONE',  ( 0.000000000000000000, 0.000000000000000000, 7.000000000000000000 ) ) ;
#148 = CARTESIAN_POINT ( 'NONE',  ( -9.000000000000000000, 0.000000000000000000, 7.000000000000000000 ) ) ;
#149 = CARTESIAN_POINT ( 'NONE',  ( -9.000000000000000000, 0.000000000000000000, 0.000000000000000000 ) ) ;
#150 = DIRECTION ( 'NONE',  ( 0.000000000000000000, 0.000000000000000000, 1.000000000000000000 ) ) ;
#151 = ADVANCED_BREP_SHAPE_REPRESENTATION ( 'c2bc', ( #58, #23 ), #34 ) ;
#152 = ORIENTED_EDGE ( 'NONE', *, *, #159, .F. ) ;
#153 = EDGE_CURVE ( 'NONE', #173, #5, #28, .T. ) ;
#154 = DIRECTION ( 'NONE',  ( -0.000000000000000000, -0.000000000000000000, -1.000000000000000000 ) ) ;
#155 = ORIENTED_EDGE ( 'NONE', *, *, #45, .T. ) ;
#156 = CARTESIAN_POINT ( 'NONE',  ( 9.000000000000000000, 1.102182119232617714E-15, 7.000000000000000000 ) ) ;
#157 = PERSON_AND_ORGANIZATION_ROLE ( 'creator' ) ;
#158 = AXIS2_PLACEMENT_3D ( 'NONE', #197, #150, #204 ) ;
#159 = EDGE_CURVE ( 'NONE', #173, #62, #27, .T. ) ;
#160 = DATE_AND_TIME ( #72, #118 ) ;
#161 = COORDINATED_UNIVERSAL_TIME_OFFSET ( 1, 0, .AHEAD. ) ;
#162 = COORDINATED_UNIVERSAL_TIME_OFFSET ( 1, 0, .AHEAD. ) ;
#163 = EDGE_CURVE ( 'NONE', #231, #9, #244, .T. ) ;
#164 = DATE_TIME_ROLE ( 'creation_date' ) ;
#165 = PRODUCT ( 'c2bc', 'c2bc', '', ( #145 ) ) ;
#166 = CARTESIAN_POINT ( 'NONE',  ( -6.250000000000000000, 0.000000000000000000, 400.0000000000000000 ) ) ;
#167 = ORIENTED_EDGE ( 'NONE', *, *, #177, .T. ) ;
#168 = CARTESIAN_POINT ( 'NONE',  ( 0.000000000000000000, 0.000000000000000000, 7.000000000000000000 ) ) ;
#169 = CARTESIAN_POINT ( 'NONE',  ( 0.000000000000000000, 0.000000000000000000, 7.000000000000000000 ) ) ;
#170 = ORIENTED_EDGE ( 'NONE', *, *, #200, .T. ) ;
#171 = AXIS2_PLACEMENT_3D ( 'NONE', #216, #107, #199 ) ;
#172 = CARTESIAN_POINT ( 'NONE',  ( 9.000000000000000000, 1.102182119232617714E-15, 7.000000000000000000 ) ) ;
#173 = VERTEX_POINT ( 'NONE', #148 ) ;
#174 = CC_DESIGN_PERSON_AND_ORGANIZATION_ASSIGNMENT ( #50, #114, ( #94 ) ) ;
#175 = ORIENTED_EDGE ( 'NONE', *, *, #205, .F. ) ;
#176 = APPROVAL_STATUS ( 'not_yet_approved' ) ;
#177 = EDGE_CURVE ( 'NONE', #62, #173, #87, .T. ) ;
#178 = APPLICATION_PROTOCOL_DEFINITION ( 'international standard', 'config_control_design', 1994, #127 ) ;
#179 = APPLICATION_CONTEXT ( 'configuration controlled 3d designs of mechanical parts and assemblies' ) ;
#180 = ORIENTED_EDGE ( 'NONE', *, *, #57, .F. ) ;
#181 = SHAPE_DEFINITION_REPRESENTATION ( #84, #151 ) ;
#182 = CARTESIAN_POINT ( 'NONE',  ( 0.000000000000000000, 0.000000000000000000, 400.0000000000000000 ) ) ;
#183 =( LENGTH_UNIT ( ) NAMED_UNIT ( * ) SI_UNIT ( .MILLI., .METRE. ) );
#184 = CARTESIAN_POINT ( 'NONE',  ( 0.000000000000000000, 0.000000000000000000, 400.0000000000000000 ) ) ;
#185 = PLANE ( 'NONE',  #143 ) ;
#186 = CC_DESIGN_PERSON_AND_ORGANIZATION_ASSIGNMENT ( #83, #109, ( #228 ) ) ;
#187 = CALENDAR_DATE ( 2023, 13, 2 ) ;
#188 = FACE_OUTER_BOUND ( 'NONE', #194, .T. ) ;
#189 = ORIENTED_EDGE ( 'NONE', *, *, #52, .F. ) ;
#190 = APPROVAL_DATE_TIME ( #246, #68 ) ;
#191 = VECTOR ( 'NONE', #208, 1000.000000000000000 ) ;
#192 = AXIS2_PLACEMENT_3D ( 'NONE', #236, #108, #85 ) ;
#193 = CC_DESIGN_APPROVAL ( #55, ( #228 ) ) ;
#194 = EDGE_LOOP ( 'NONE', ( #126, #201, #206, #96 ) ) ;
#195 = VERTEX_POINT ( 'NONE', #46 ) ;
#196 =( NAMED_UNIT ( * ) PLANE_ANGLE_UNIT ( ) SI_UNIT ( $, .RADIAN. ) );
#197 = CARTESIAN_POINT ( 'NONE',  ( 0.000000000000000000, 0.000000000000000000, 0.000000000000000000 ) ) ;
#198 = VECTOR ( 'NONE', #25, 1000.000000000000000 ) ;
#199 = DIRECTION ( 'NONE',  ( -1.000000000000000000, 0.000000000000000000, 0.000000000000000000 ) ) ;
#200 = EDGE_CURVE ( 'NONE', #40, #231, #6, .T. ) ;
#201 = ORIENTED_EDGE ( 'NONE', *, *, #52, .T. ) ;
#202 = CARTESIAN_POINT ( 'NONE',  ( 6.250000000000000000, 7.654042494670957606E-16, 400.0000000000000000 ) ) ;
#203 = DIRECTION ( 'NONE',  ( -1.000000000000000000, 0.000000000000000000, 0.000000000000000000 ) ) ;
#204 = DIRECTION ( 'NONE',  ( 1.000000000000000000, 0.000000000000000000, 0.000000000000000000 ) ) ;
#205 = EDGE_CURVE ( 'NONE', #195, #9, #128, .T. ) ;
#206 = ORIENTED_EDGE ( 'NONE', *, *, #123, .T. ) ;
#207 = FACE_OUTER_BOUND ( 'NONE', #142, .T. ) ;
#208 = DIRECTION ( 'NONE',  ( -0.000000000000000000, -0.000000000000000000, -1.000000000000000000 ) ) ;
#209 = DATE_AND_TIME ( #99, #98 ) ;
#210 = ADVANCED_FACE ( 'NONE', ( #61 ), #250, .T. ) ;
#211 = LOCAL_TIME ( 11, 37, 30.00000000000000000, #161 ) ;
#212 = APPROVAL_ROLE ( '' ) ;
#213 = EDGE_CURVE ( 'NONE', #9, #195, #105, .T. ) ;
#214 = CARTESIAN_POINT ( 'NONE',  ( 0.000000000000000000, 0.000000000000000000, 0.000000000000000000 ) ) ;
#215 = CALENDAR_DATE ( 2023, 13, 2 ) ;
#216 = CARTESIAN_POINT ( 'NONE',  ( 0.000000000000000000, 0.000000000000000000, 400.0000000000000000 ) ) ;
#217 = CC_DESIGN_PERSON_AND_ORGANIZATION_ASSIGNMENT ( #226, #32, ( #56 ) ) ;
#218 = APPLICATION_PROTOCOL_DEFINITION ( 'international standard', 'config_control_design', 1994, #179 ) ;
#219 = CARTESIAN_POINT ( 'NONE',  ( 6.250000000000000000, 7.654042494670957606E-16, 400.0000000000000000 ) ) ;
#220 = LOCAL_TIME ( 11, 37, 30.00000000000000000, #64 ) ;
#221 = EDGE_LOOP ( 'NONE', ( #21, #170 ) ) ;
#222 = DIRECTION ( 'NONE',  ( 0.000000000000000000, 0.000000000000000000, 1.000000000000000000 ) ) ;
#223 = DIRECTION ( 'NONE',  ( 1.000000000000000000, 0.000000000000000000, -0.000000000000000000 ) ) ;
#224 = DIRECTION ( 'NONE',  ( 1.000000000000000000, 0.000000000000000000, 0.000000000000000000 ) ) ;
#225 = FACE_OUTER_BOUND ( 'NONE', #221, .T. ) ;
#226 = PERSON_AND_ORGANIZATION ( #59, #137 ) ;
#227 = DIRECTION ( 'NONE',  ( 0.000000000000000000, 0.000000000000000000, 1.000000000000000000 ) ) ;
#228 = PRODUCT_DEFINITION ( 'NEZNÁMÝ', '', #56, #73 ) ;
#229 = EDGE_LOOP ( 'NONE', ( #135, #175 ) ) ;
#230 = APPROVAL ( #176, 'NEURÈENÝ' ) ;
#231 = VERTEX_POINT ( 'NONE', #166 ) ;
#232 = DIRECTION ( 'NONE',  ( -0.000000000000000000, -0.000000000000000000, -1.000000000000000000 ) ) ;
#233 = CARTESIAN_POINT ( 'NONE',  ( 0.000000000000000000, 0.000000000000000000, 7.000000000000000000 ) ) ;
#234 = CC_DESIGN_PERSON_AND_ORGANIZATION_ASSIGNMENT ( #66, #157, ( #56 ) ) ;
#235 = CYLINDRICAL_SURFACE ( 'NONE', #171, 6.250000000000000000 ) ;
#236 = CARTESIAN_POINT ( 'NONE',  ( 0.000000000000000000, 0.000000000000000000, 7.000000000000000000 ) ) ;
#237 = CC_DESIGN_APPROVAL ( #230, ( #94 ) ) ;
#238 = PERSON_AND_ORGANIZATION ( #59, #137 ) ;
#239 = APPROVAL_STATUS ( 'not_yet_approved' ) ;
#240 = EDGE_LOOP ( 'NONE', ( #4, #180, #106, #37 ) ) ;
#241 = DIRECTION ( 'NONE',  ( 1.000000000000000000, 0.000000000000000000, -0.000000000000000000 ) ) ;
#242 = DIRECTION ( 'NONE',  ( 1.000000000000000000, 0.000000000000000000, 0.000000000000000000 ) ) ;
#243 = DIRECTION ( 'NONE',  ( 1.000000000000000000, 0.000000000000000000, -0.000000000000000000 ) ) ;
#244 = LINE ( 'NONE', #24, #198 ) ;
#245 = VECTOR ( 'NONE', #116, 1000.000000000000000 ) ;
#246 = DATE_AND_TIME ( #187, #220 ) ;
#247 = ORIENTED_EDGE ( 'NONE', *, *, #163, .F. ) ;
#248 = CIRCLE ( 'NONE', #119, 6.250000000000000000 ) ;
#249 = PLANE ( 'NONE',  #139 ) ;
#250 = CYLINDRICAL_SURFACE ( 'NONE', #81, 9.000000000000000000 ) ;
#251 = DIRECTION ( 'NONE',  ( 1.000000000000000000, 0.000000000000000000, 0.000000000000000000 ) ) ;
#252 = AXIS2_PLACEMENT_3D ( 'NONE', #111, #222, #82 ) ;
#253 = CC_DESIGN_APPROVAL ( #68, ( #56 ) ) ;
#254 = CC_DESIGN_DATE_AND_TIME_ASSIGNMENT ( #160, #95, ( #94 ) ) ;
#255 = PLANE ( 'NONE',  #19 ) ;
ENDSEC;
END-ISO-10303-21;
