ISO-10303-21;
HEADER;
FILE_DESCRIPTION (( 'STEP AP203' ),
    '1' );
FILE_NAME ('dbf6.STEP',
    '2023-02-13T13:09:36',
    ( '' ),
    ( '' ),
    'SwSTEP 2.0',
    'SolidWorks 2019',
    '' );
FILE_SCHEMA (( 'CONFIG_CONTROL_DESIGN' ));
ENDSEC;

DATA;
#1 = ORIENTED_EDGE ( 'NONE', *, *, #38, .T. ) ;
#2 = AXIS2_PLACEMENT_3D ( 'NONE', #226, #229, #33 ) ;
#3 = ORIENTED_EDGE ( 'NONE', *, *, #246, .T. ) ;
#4 = DIRECTION ( 'NONE',  ( -0.000000000000000000, -0.000000000000000000, -1.000000000000000000 ) ) ;
#5 = APPLICATION_PROTOCOL_DEFINITION ( 'international standard', 'config_control_design', 1994, #82 ) ;
#6 = ORGANIZATION ( 'NEURÈENÝ', 'NEURÈENÝ', '' ) ;
#7 = PERSON_AND_ORGANIZATION ( #14, #6 ) ;
#8 = ORIENTED_EDGE ( 'NONE', *, *, #127, .T. ) ;
#9 = CALENDAR_DATE ( 2023, 13, 2 ) ;
#10 = EDGE_CURVE ( 'NONE', #255, #238, #253, .T. ) ;
#11 = DIRECTION ( 'NONE',  ( -0.000000000000000000, -0.000000000000000000, -1.000000000000000000 ) ) ;
#12 = DIRECTION ( 'NONE',  ( -1.000000000000000000, 0.000000000000000000, 0.000000000000000000 ) ) ;
#13 = LOCAL_TIME ( 14, 9, 36.00000000000000000, #62 ) ;
#14 = PERSON ( 'NEURÈENÝ', 'NEURÈENÝ', 'NEURÈENÝ', ('NEURÈENÝ'), ('NEURÈENÝ'), ('NEURÈENÝ') ) ;
#15 = CARTESIAN_POINT ( 'NONE',  ( 0.000000000000000000, 0.000000000000000000, 0.000000000000000000 ) ) ;
#16 = APPROVAL ( #126, 'NEURÈENÝ' ) ;
#17 = LINE ( 'NONE', #174, #131 ) ;
#18 = DIRECTION ( 'NONE',  ( 1.000000000000000000, 0.000000000000000000, 0.000000000000000000 ) ) ;
#19 = ORIENTED_EDGE ( 'NONE', *, *, #65, .F. ) ;
#20 = CARTESIAN_POINT ( 'NONE',  ( 5.000000000000000888, 6.123233995736766282E-16, 315.0000000000000000 ) ) ;
#21 = ORIENTED_EDGE ( 'NONE', *, *, #139, .T. ) ;
#22 = SECURITY_CLASSIFICATION_LEVEL ( 'unclassified' ) ;
#23 = PLANE ( 'NONE',  #185 ) ;
#24 = ORIENTED_EDGE ( 'NONE', *, *, #245, .F. ) ;
#25 = VERTEX_POINT ( 'NONE', #102 ) ;
#26 = DATE_AND_TIME ( #49, #152 ) ;
#27 = DIRECTION ( 'NONE',  ( 1.000000000000000000, 0.000000000000000000, -0.000000000000000000 ) ) ;
#28 = ADVANCED_FACE ( 'NONE', ( #201, #122 ), #23, .T. ) ;
#29 = PERSON_AND_ORGANIZATION_ROLE ( 'creator' ) ;
#30 = DIRECTION ( 'NONE',  ( -0.000000000000000000, -0.000000000000000000, -1.000000000000000000 ) ) ;
#31 =( GEOMETRIC_REPRESENTATION_CONTEXT ( 3 ) GLOBAL_UNCERTAINTY_ASSIGNED_CONTEXT ( ( #180 ) ) GLOBAL_UNIT_ASSIGNED_CONTEXT ( ( #178, #232, #77 ) ) REPRESENTATION_CONTEXT ( 'NONE', 'WORKASPACE' ) );
#32 = DIRECTION ( 'NONE',  ( -0.000000000000000000, -0.000000000000000000, -1.000000000000000000 ) ) ;
#33 = DIRECTION ( 'NONE',  ( -1.000000000000000000, 0.000000000000000000, 0.000000000000000000 ) ) ;
#34 = CARTESIAN_POINT ( 'NONE',  ( 8.000000000000000000, 9.797174393178823685E-16, 0.000000000000000000 ) ) ;
#35 = VECTOR ( 'NONE', #4, 1000.000000000000000 ) ;
#36 = DIRECTION ( 'NONE',  ( 1.000000000000000000, 0.000000000000000000, 0.000000000000000000 ) ) ;
#37 = ORIENTED_EDGE ( 'NONE', *, *, #101, .T. ) ;
#38 = EDGE_CURVE ( 'NONE', #255, #205, #202, .T. ) ;
#39 = VERTEX_POINT ( 'NONE', #141 ) ;
#40 = PRODUCT_RELATED_PRODUCT_CATEGORY ( 'detail', '', ( #92 ) ) ;
#41 = AXIS2_PLACEMENT_3D ( 'NONE', #132, #11, #210 ) ;
#42 = DIRECTION ( 'NONE',  ( 0.000000000000000000, 0.000000000000000000, 1.000000000000000000 ) ) ;
#43 = DESIGN_CONTEXT ( 'detailed design', #82, 'design' ) ;
#44 = ORIENTED_EDGE ( 'NONE', *, *, #10, .T. ) ;
#45 = LOCAL_TIME ( 14, 9, 36.00000000000000000, #166 ) ;
#46 = VERTEX_POINT ( 'NONE', #184 ) ;
#47 = CALENDAR_DATE ( 2023, 13, 2 ) ;
#48 = CC_DESIGN_APPROVAL ( #16, ( #191 ) ) ;
#49 = CALENDAR_DATE ( 2023, 13, 2 ) ;
#50 = ORIENTED_EDGE ( 'NONE', *, *, #58, .F. ) ;
#51 = APPROVAL_DATE_TIME ( #67, #177 ) ;
#52 = DIRECTION ( 'NONE',  ( 0.000000000000000000, 0.000000000000000000, 1.000000000000000000 ) ) ;
#53 = CC_DESIGN_DATE_AND_TIME_ASSIGNMENT ( #26, #221, ( #183 ) ) ;
#54 = FACE_OUTER_BOUND ( 'NONE', #89, .T. ) ;
#55 = CARTESIAN_POINT ( 'NONE',  ( 0.000000000000000000, 0.000000000000000000, 315.0000000000000000 ) ) ;
#56 = DIRECTION ( 'NONE',  ( 1.000000000000000000, 0.000000000000000000, 0.000000000000000000 ) ) ;
#57 = CYLINDRICAL_SURFACE ( 'NONE', #41, 5.000000000000000888 ) ;
#58 = EDGE_CURVE ( 'NONE', #46, #39, #217, .T. ) ;
#59 = ADVANCED_FACE ( 'NONE', ( #95 ), #129, .F. ) ;
#60 = AXIS2_PLACEMENT_3D ( 'NONE', #74, #193, #247 ) ;
#61 = DIRECTION ( 'NONE',  ( -0.000000000000000000, -0.000000000000000000, -1.000000000000000000 ) ) ;
#62 = COORDINATED_UNIVERSAL_TIME_OFFSET ( 1, 0, .AHEAD. ) ;
#63 = ORIENTED_EDGE ( 'NONE', *, *, #200, .F. ) ;
#64 = AXIS2_PLACEMENT_3D ( 'NONE', #109, #52, #227 ) ;
#65 = EDGE_CURVE ( 'NONE', #205, #25, #72, .T. ) ;
#66 = VERTEX_POINT ( 'NONE', #114 ) ;
#67 = DATE_AND_TIME ( #225, #45 ) ;
#68 = DIRECTION ( 'NONE',  ( 1.000000000000000000, 0.000000000000000000, 0.000000000000000000 ) ) ;
#69 = AXIS2_PLACEMENT_3D ( 'NONE', #113, #196, #90 ) ;
#70 = APPROVAL_STATUS ( 'not_yet_approved' ) ;
#71 = CC_DESIGN_DATE_AND_TIME_ASSIGNMENT ( #103, #162, ( #170 ) ) ;
#72 = CIRCLE ( 'NONE', #104, 5.000000000000000888 ) ;
#73 = DIRECTION ( 'NONE',  ( 1.000000000000000000, 0.000000000000000000, 0.000000000000000000 ) ) ;
#74 = CARTESIAN_POINT ( 'NONE',  ( 0.000000000000000000, 0.000000000000000000, 0.000000000000000000 ) ) ;
#75 = EDGE_CURVE ( 'NONE', #238, #25, #151, .T. ) ;
#76 = CARTESIAN_POINT ( 'NONE',  ( 0.000000000000000000, 0.000000000000000000, 0.000000000000000000 ) ) ;
#77 =( NAMED_UNIT ( * ) SI_UNIT ( $, .STERADIAN. ) SOLID_ANGLE_UNIT ( ) );
#78 = DIRECTION ( 'NONE',  ( 0.000000000000000000, 0.000000000000000000, 1.000000000000000000 ) ) ;
#79 = EDGE_LOOP ( 'NONE', ( #21, #44 ) ) ;
#80 = APPROVAL ( #123, 'NEURÈENÝ' ) ;
#81 = EDGE_LOOP ( 'NONE', ( #197, #3 ) ) ;
#82 = APPLICATION_CONTEXT ( 'configuration controlled 3d designs of mechanical parts and assemblies' ) ;
#83 = CARTESIAN_POINT ( 'NONE',  ( 0.000000000000000000, 0.000000000000000000, 315.0000000000000000 ) ) ;
#84 = PERSON_AND_ORGANIZATION_ROLE ( 'classification_officer' ) ;
#85 = ORIENTED_EDGE ( 'NONE', *, *, #119, .T. ) ;
#86 = APPROVAL_PERSON_ORGANIZATION ( #144, #177, #206 ) ;
#87 = PERSON_AND_ORGANIZATION ( #14, #6 ) ;
#88 = ORIENTED_EDGE ( 'NONE', *, *, #38, .F. ) ;
#89 = EDGE_LOOP ( 'NONE', ( #88, #216, #164, #8 ) ) ;
#90 = DIRECTION ( 'NONE',  ( 1.000000000000000000, 0.000000000000000000, -0.000000000000000000 ) ) ;
#91 = DIRECTION ( 'NONE',  ( -1.000000000000000000, 0.000000000000000000, 0.000000000000000000 ) ) ;
#92 = PRODUCT ( 'dbf6', 'dbf6', '', ( #199 ) ) ;
#93 = AXIS2_PLACEMENT_3D ( 'NONE', #169, #248, #73 ) ;
#94 = DIRECTION ( 'NONE',  ( 0.000000000000000000, 0.000000000000000000, 1.000000000000000000 ) ) ;
#95 = FACE_OUTER_BOUND ( 'NONE', #231, .T. ) ;
#96 = APPLICATION_CONTEXT ( 'configuration controlled 3d designs of mechanical parts and assemblies' ) ;
#97 = FACE_OUTER_BOUND ( 'NONE', #79, .T. ) ;
#98 = APPROVAL_PERSON_ORGANIZATION ( #243, #16, #106 ) ;
#99 = ORIENTED_EDGE ( 'NONE', *, *, #119, .F. ) ;
#100 = CC_DESIGN_APPROVAL ( #177, ( #183 ) ) ;
#101 = EDGE_CURVE ( 'NONE', #159, #39, #175, .T. ) ;
#102 = CARTESIAN_POINT ( 'NONE',  ( -5.000000000000000888, 0.000000000000000000, 6.500000000000000000 ) ) ;
#103 = DATE_AND_TIME ( #47, #194 ) ;
#104 = AXIS2_PLACEMENT_3D ( 'NONE', #211, #94, #56 ) ;
#105 = ORIENTED_EDGE ( 'NONE', *, *, #200, .T. ) ;
#106 = APPROVAL_ROLE ( '' ) ;
#107 = COORDINATED_UNIVERSAL_TIME_OFFSET ( 1, 0, .AHEAD. ) ;
#108 = APPROVAL_DATE_TIME ( #203, #80 ) ;
#109 = CARTESIAN_POINT ( 'NONE',  ( 0.000000000000000000, 0.000000000000000000, 315.0000000000000000 ) ) ;
#110 = CARTESIAN_POINT ( 'NONE',  ( 5.000000000000000888, 6.123233995736766282E-16, 6.500000000000000000 ) ) ;
#111 = FACE_OUTER_BOUND ( 'NONE', #138, .T. ) ;
#112 = CIRCLE ( 'NONE', #249, 5.000000000000000888 ) ;
#113 = CARTESIAN_POINT ( 'NONE',  ( 0.000000000000000000, 0.000000000000000000, 315.0000000000000000 ) ) ;
#114 = CARTESIAN_POINT ( 'NONE',  ( 8.000000000000000000, 9.797174393178823685E-16, 6.500000000000000000 ) ) ;
#115 = CC_DESIGN_PERSON_AND_ORGANIZATION_ASSIGNMENT ( #182, #84, ( #170 ) ) ;
#116 = APPLICATION_PROTOCOL_DEFINITION ( 'international standard', 'config_control_design', 1994, #96 ) ;
#117 = ORIENTED_EDGE ( 'NONE', *, *, #101, .F. ) ;
#118 = DIRECTION ( 'NONE',  ( 1.000000000000000000, 0.000000000000000000, 0.000000000000000000 ) ) ;
#119 = EDGE_CURVE ( 'NONE', #39, #159, #214, .T. ) ;
#120 = CC_DESIGN_APPROVAL ( #80, ( #170 ) ) ;
#121 = DATE_AND_TIME ( #189, #13 ) ;
#122 = FACE_OUTER_BOUND ( 'NONE', #81, .T. ) ;
#123 = APPROVAL_STATUS ( 'not_yet_approved' ) ;
#124 = AXIS2_PLACEMENT_3D ( 'NONE', #76, #250, #36 ) ;
#125 = EDGE_LOOP ( 'NONE', ( #240, #105, #37, #50 ) ) ;
#126 = APPROVAL_STATUS ( 'not_yet_approved' ) ;
#127 = EDGE_CURVE ( 'NONE', #25, #205, #112, .T. ) ;
#128 = ADVANCED_FACE ( 'NONE', ( #195 ), #213, .T. ) ;
#129 = PLANE ( 'NONE',  #230 ) ;
#130 = PRODUCT_DEFINITION_SHAPE ( 'NONE', 'NONE',  #183 ) ;
#131 = VECTOR ( 'NONE', #252, 1000.000000000000000 ) ;
#132 = CARTESIAN_POINT ( 'NONE',  ( 0.000000000000000000, 0.000000000000000000, 315.0000000000000000 ) ) ;
#133 = CARTESIAN_POINT ( 'NONE',  ( -5.000000000000000888, 0.000000000000000000, 315.0000000000000000 ) ) ;
#134 = DIRECTION ( 'NONE',  ( 1.000000000000000000, 0.000000000000000000, -0.000000000000000000 ) ) ;
#135 = CC_DESIGN_SECURITY_CLASSIFICATION ( #170, ( #191 ) ) ;
#136 = CYLINDRICAL_SURFACE ( 'NONE', #147, 5.000000000000000888 ) ;
#137 = EDGE_LOOP ( 'NONE', ( #63, #24, #160, #85 ) ) ;
#138 = EDGE_LOOP ( 'NONE', ( #176, #1, #242, #186 ) ) ;
#139 = EDGE_CURVE ( 'NONE', #238, #255, #156, .T. ) ;
#140 = CARTESIAN_POINT ( 'NONE',  ( 0.000000000000000000, 0.000000000000000000, 0.000000000000000000 ) ) ;
#141 = CARTESIAN_POINT ( 'NONE',  ( -8.000000000000000000, 0.000000000000000000, 0.000000000000000000 ) ) ;
#142 = PERSON_AND_ORGANIZATION_ROLE ( 'design_supplier' ) ;
#143 = VECTOR ( 'NONE', #61, 1000.000000000000000 ) ;
#144 = PERSON_AND_ORGANIZATION ( #14, #6 ) ;
#145 = APPROVAL_DATE_TIME ( #121, #16 ) ;
#146 = CC_DESIGN_PERSON_AND_ORGANIZATION_ASSIGNMENT ( #208, #29, ( #191 ) ) ;
#147 = AXIS2_PLACEMENT_3D ( 'NONE', #55, #32, #12 ) ;
#148 = PERSON_AND_ORGANIZATION_ROLE ( 'creator' ) ;
#149 = ADVANCED_FACE ( 'NONE', ( #54 ), #57, .T. ) ;
#150 = PLANE ( 'NONE',  #69 ) ;
#151 = LINE ( 'NONE', #251, #254 ) ;
#152 = LOCAL_TIME ( 14, 9, 36.00000000000000000, #107 ) ;
#153 = CARTESIAN_POINT ( 'NONE',  ( 0.000000000000000000, 0.000000000000000000, 6.500000000000000000 ) ) ;
#154 = DIRECTION ( 'NONE',  ( 1.000000000000000000, 0.000000000000000000, 0.000000000000000000 ) ) ;
#155 = DIRECTION ( 'NONE',  ( 0.000000000000000000, 0.000000000000000000, 1.000000000000000000 ) ) ;
#156 = CIRCLE ( 'NONE', #64, 5.000000000000000888 ) ;
#157 = CC_DESIGN_PERSON_AND_ORGANIZATION_ASSIGNMENT ( #219, #236, ( #92 ) ) ;
#158 = CC_DESIGN_PERSON_AND_ORGANIZATION_ASSIGNMENT ( #87, #142, ( #191 ) ) ;
#159 = VERTEX_POINT ( 'NONE', #34 ) ;
#160 = ORIENTED_EDGE ( 'NONE', *, *, #58, .T. ) ;
#161 = ADVANCED_BREP_SHAPE_REPRESENTATION ( 'dbf6', ( #212, #198 ), #31 ) ;
#162 = DATE_TIME_ROLE ( 'classification_date' ) ;
#163 = CIRCLE ( 'NONE', #93, 8.000000000000000000 ) ;
#164 = ORIENTED_EDGE ( 'NONE', *, *, #75, .T. ) ;
#165 = SHAPE_DEFINITION_REPRESENTATION ( #130, #161 ) ;
#166 = COORDINATED_UNIVERSAL_TIME_OFFSET ( 1, 0, .AHEAD. ) ;
#167 = CIRCLE ( 'NONE', #179, 8.000000000000000000 ) ;
#168 = CARTESIAN_POINT ( 'NONE',  ( 5.000000000000000888, 6.123233995736766282E-16, 315.0000000000000000 ) ) ;
#169 = CARTESIAN_POINT ( 'NONE',  ( 0.000000000000000000, 0.000000000000000000, 6.500000000000000000 ) ) ;
#170 = SECURITY_CLASSIFICATION ( '', '', #22 ) ;
#171 = CYLINDRICAL_SURFACE ( 'NONE', #204, 8.000000000000000000 ) ;
#172 = DIRECTION ( 'NONE',  ( -0.000000000000000000, -0.000000000000000000, -1.000000000000000000 ) ) ;
#173 = ADVANCED_FACE ( 'NONE', ( #111 ), #136, .T. ) ;
#174 = CARTESIAN_POINT ( 'NONE',  ( 8.000000000000000000, 9.797174393178823685E-16, 6.500000000000000000 ) ) ;
#175 = CIRCLE ( 'NONE', #60, 8.000000000000000000 ) ;
#176 = ORIENTED_EDGE ( 'NONE', *, *, #10, .F. ) ;
#177 = APPROVAL ( #70, 'NEURÈENÝ' ) ;
#178 =( LENGTH_UNIT ( ) NAMED_UNIT ( * ) SI_UNIT ( .MILLI., .METRE. ) );
#179 = AXIS2_PLACEMENT_3D ( 'NONE', #153, #78, #18 ) ;
#180 = UNCERTAINTY_MEASURE_WITH_UNIT (LENGTH_MEASURE( 1.000000000000000082E-05 ), #178, 'distance_accuracy_value', 'NONE');
#181 = CARTESIAN_POINT ( 'NONE',  ( -8.000000000000000000, 0.000000000000000000, 6.500000000000000000 ) ) ;
#182 = PERSON_AND_ORGANIZATION ( #14, #6 ) ;
#183 = PRODUCT_DEFINITION ( 'NEZNÁMÝ', '', #191, #43 ) ;
#184 = CARTESIAN_POINT ( 'NONE',  ( -8.000000000000000000, 0.000000000000000000, 6.500000000000000000 ) ) ;
#185 = AXIS2_PLACEMENT_3D ( 'NONE', #207, #190, #27 ) ;
#186 = ORIENTED_EDGE ( 'NONE', *, *, #75, .F. ) ;
#187 = COORDINATED_UNIVERSAL_TIME_OFFSET ( 1, 0, .AHEAD. ) ;
#188 = ADVANCED_FACE ( 'NONE', ( #97 ), #150, .T. ) ;
#189 = CALENDAR_DATE ( 2023, 13, 2 ) ;
#190 = DIRECTION ( 'NONE',  ( 0.000000000000000000, 0.000000000000000000, 1.000000000000000000 ) ) ;
#191 = PRODUCT_DEFINITION_FORMATION_WITH_SPECIFIED_SOURCE ( 'LIBOVOLNÝ', '', #92, .NOT_KNOWN. ) ;
#192 = CARTESIAN_POINT ( 'NONE',  ( 0.000000000000000000, 0.000000000000000000, 6.500000000000000000 ) ) ;
#193 = DIRECTION ( 'NONE',  ( 0.000000000000000000, 0.000000000000000000, 1.000000000000000000 ) ) ;
#194 = LOCAL_TIME ( 14, 9, 36.00000000000000000, #187 ) ;
#195 = FACE_OUTER_BOUND ( 'NONE', #137, .T. ) ;
#196 = DIRECTION ( 'NONE',  ( 0.000000000000000000, 0.000000000000000000, 1.000000000000000000 ) ) ;
#197 = ORIENTED_EDGE ( 'NONE', *, *, #245, .T. ) ;
#198 = AXIS2_PLACEMENT_3D ( 'NONE', #140, #42, #118 ) ;
#199 = MECHANICAL_CONTEXT ( 'NONE', #96, 'mechanical' ) ;
#200 = EDGE_CURVE ( 'NONE', #66, #159, #17, .T. ) ;
#201 = FACE_BOUND ( 'NONE', #235, .T. ) ;
#202 = LINE ( 'NONE', #168, #143 ) ;
#203 = DATE_AND_TIME ( #9, #244 ) ;
#204 = AXIS2_PLACEMENT_3D ( 'NONE', #192, #30, #91 ) ;
#205 = VERTEX_POINT ( 'NONE', #110 ) ;
#206 = APPROVAL_ROLE ( '' ) ;
#207 = CARTESIAN_POINT ( 'NONE',  ( 0.000000000000000000, 0.000000000000000000, 6.500000000000000000 ) ) ;
#208 = PERSON_AND_ORGANIZATION ( #14, #6 ) ;
#209 = FACE_OUTER_BOUND ( 'NONE', #125, .T. ) ;
#210 = DIRECTION ( 'NONE',  ( -1.000000000000000000, 0.000000000000000000, 0.000000000000000000 ) ) ;
#211 = CARTESIAN_POINT ( 'NONE',  ( 0.000000000000000000, 0.000000000000000000, 6.500000000000000000 ) ) ;
#212 = MANIFOLD_SOLID_BREP ( 'Pøidat vysunutím3', #218 ) ;
#213 = CYLINDRICAL_SURFACE ( 'NONE', #2, 8.000000000000000000 ) ;
#214 = CIRCLE ( 'NONE', #124, 8.000000000000000000 ) ;
#215 = DIRECTION ( 'NONE',  ( 0.000000000000000000, 0.000000000000000000, 1.000000000000000000 ) ) ;
#216 = ORIENTED_EDGE ( 'NONE', *, *, #139, .F. ) ;
#217 = LINE ( 'NONE', #181, #35 ) ;
#218 = CLOSED_SHELL ( 'NONE', ( #173, #234, #128, #28, #59, #149, #188 ) ) ;
#219 = PERSON_AND_ORGANIZATION ( #14, #6 ) ;
#220 = ORIENTED_EDGE ( 'NONE', *, *, #127, .F. ) ;
#221 = DATE_TIME_ROLE ( 'creation_date' ) ;
#222 = DIRECTION ( 'NONE',  ( 0.000000000000000000, 0.000000000000000000, 1.000000000000000000 ) ) ;
#223 = PERSON_AND_ORGANIZATION ( #14, #6 ) ;
#224 = AXIS2_PLACEMENT_3D ( 'NONE', #83, #222, #68 ) ;
#225 = CALENDAR_DATE ( 2023, 13, 2 ) ;
#226 = CARTESIAN_POINT ( 'NONE',  ( 0.000000000000000000, 0.000000000000000000, 6.500000000000000000 ) ) ;
#227 = DIRECTION ( 'NONE',  ( 1.000000000000000000, 0.000000000000000000, 0.000000000000000000 ) ) ;
#228 = CARTESIAN_POINT ( 'NONE',  ( 0.000000000000000000, 0.000000000000000000, 6.500000000000000000 ) ) ;
#229 = DIRECTION ( 'NONE',  ( -0.000000000000000000, -0.000000000000000000, -1.000000000000000000 ) ) ;
#230 = AXIS2_PLACEMENT_3D ( 'NONE', #15, #215, #134 ) ;
#231 = EDGE_LOOP ( 'NONE', ( #99, #117 ) ) ;
#232 =( NAMED_UNIT ( * ) PLANE_ANGLE_UNIT ( ) SI_UNIT ( $, .RADIAN. ) );
#233 = CC_DESIGN_PERSON_AND_ORGANIZATION_ASSIGNMENT ( #223, #148, ( #183 ) ) ;
#234 = ADVANCED_FACE ( 'NONE', ( #209 ), #171, .T. ) ;
#235 = EDGE_LOOP ( 'NONE', ( #220, #19 ) ) ;
#236 = PERSON_AND_ORGANIZATION_ROLE ( 'design_owner' ) ;
#237 = APPROVAL_PERSON_ORGANIZATION ( #7, #80, #239 ) ;
#238 = VERTEX_POINT ( 'NONE', #133 ) ;
#239 = APPROVAL_ROLE ( '' ) ;
#240 = ORIENTED_EDGE ( 'NONE', *, *, #246, .F. ) ;
#241 = COORDINATED_UNIVERSAL_TIME_OFFSET ( 1, 0, .AHEAD. ) ;
#242 = ORIENTED_EDGE ( 'NONE', *, *, #65, .T. ) ;
#243 = PERSON_AND_ORGANIZATION ( #14, #6 ) ;
#244 = LOCAL_TIME ( 14, 9, 36.00000000000000000, #241 ) ;
#245 = EDGE_CURVE ( 'NONE', #46, #66, #163, .T. ) ;
#246 = EDGE_CURVE ( 'NONE', #66, #46, #167, .T. ) ;
#247 = DIRECTION ( 'NONE',  ( 1.000000000000000000, 0.000000000000000000, 0.000000000000000000 ) ) ;
#248 = DIRECTION ( 'NONE',  ( 0.000000000000000000, 0.000000000000000000, 1.000000000000000000 ) ) ;
#249 = AXIS2_PLACEMENT_3D ( 'NONE', #228, #155, #154 ) ;
#250 = DIRECTION ( 'NONE',  ( 0.000000000000000000, 0.000000000000000000, 1.000000000000000000 ) ) ;
#251 = CARTESIAN_POINT ( 'NONE',  ( -5.000000000000000888, 0.000000000000000000, 315.0000000000000000 ) ) ;
#252 = DIRECTION ( 'NONE',  ( -0.000000000000000000, -0.000000000000000000, -1.000000000000000000 ) ) ;
#253 = CIRCLE ( 'NONE', #224, 5.000000000000000888 ) ;
#254 = VECTOR ( 'NONE', #172, 1000.000000000000000 ) ;
#255 = VERTEX_POINT ( 'NONE', #20 ) ;
ENDSEC;
END-ISO-10303-21;
