ISO-10303-21;
HEADER;
FILE_DESCRIPTION (( 'STEP AP203' ),
    '1' );
FILE_NAME ('3443.STEP',
    '2023-02-13T17:05:24',
    ( '' ),
    ( '' ),
    'SwSTEP 2.0',
    'SolidWorks 2019',
    '' );
FILE_SCHEMA (( 'CONFIG_CONTROL_DESIGN' ));
ENDSEC;

DATA;
#1 = VERTEX_POINT ( 'NONE', #32 ) ;
#2 = PERSON_AND_ORGANIZATION ( #241, #79 ) ;
#3 = EDGE_CURVE ( 'NONE', #250, #38, #74, .T. ) ;
#4 = EDGE_LOOP ( 'NONE', ( #39, #81, #140, #114 ) ) ;
#5 = PERSON_AND_ORGANIZATION_ROLE ( 'creator' ) ;
#6 = EDGE_CURVE ( 'NONE', #1, #250, #97, .T. ) ;
#7 = EDGE_LOOP ( 'NONE', ( #90, #192, #202, #251 ) ) ;
#8 = DIRECTION ( 'NONE',  ( -1.000000000000000000, 0.000000000000000000, 0.000000000000000000 ) ) ;
#9 = CALENDAR_DATE ( 2023, 13, 2 ) ;
#10 = DIRECTION ( 'NONE',  ( -0.000000000000000000, -0.000000000000000000, -1.000000000000000000 ) ) ;
#11 = CARTESIAN_POINT ( 'NONE',  ( 1.100000000000000089, 1.347111479062088503E-16, 400.0000000000000000 ) ) ;
#12 = CIRCLE ( 'NONE', #240, 1.100000000000000089 ) ;
#13 = CC_DESIGN_SECURITY_CLASSIFICATION ( #135, ( #206 ) ) ;
#14 = DIRECTION ( 'NONE',  ( -0.000000000000000000, -0.000000000000000000, -1.000000000000000000 ) ) ;
#15 = CARTESIAN_POINT ( 'NONE',  ( -1.100000000000000089, 0.000000000000000000, 400.0000000000000000 ) ) ;
#16 = CC_DESIGN_PERSON_AND_ORGANIZATION_ASSIGNMENT ( #194, #5, ( #206 ) ) ;
#17 = VECTOR ( 'NONE', #200, 1000.000000000000000 ) ;
#18 =( LENGTH_UNIT ( ) NAMED_UNIT ( * ) SI_UNIT ( .MILLI., .METRE. ) );
#19 = EDGE_CURVE ( 'NONE', #145, #38, #69, .T. ) ;
#20 = SHAPE_DEFINITION_REPRESENTATION ( #85, #157 ) ;
#21 = CIRCLE ( 'NONE', #106, 2.000000000000000000 ) ;
#22 = LOCAL_TIME ( 18, 5, 24.00000000000000000, #48 ) ;
#23 = APPROVAL_ROLE ( '' ) ;
#24 = ADVANCED_FACE ( 'NONE', ( #53 ), #75, .T. ) ;
#25 = CALENDAR_DATE ( 2023, 13, 2 ) ;
#26 = EDGE_LOOP ( 'NONE', ( #120, #101, #80, #199 ) ) ;
#27 = DATE_AND_TIME ( #25, #89 ) ;
#28 = ADVANCED_FACE ( 'NONE', ( #65, #130 ), #143, .T. ) ;
#29 = DIRECTION ( 'NONE',  ( 1.000000000000000000, 0.000000000000000000, -0.000000000000000000 ) ) ;
#30 = PERSON_AND_ORGANIZATION_ROLE ( 'classification_officer' ) ;
#31 = CARTESIAN_POINT ( 'NONE',  ( 2.000000000000000000, 2.449293598294706414E-16, 0.000000000000000000 ) ) ;
#32 = CARTESIAN_POINT ( 'NONE',  ( -2.000000000000000000, 0.000000000000000000, 2.000000000000000000 ) ) ;
#33 = CARTESIAN_POINT ( 'NONE',  ( 0.000000000000000000, 0.000000000000000000, 2.000000000000000000 ) ) ;
#34 = PRODUCT_DEFINITION ( 'NEZNÁMÝ', '', #206, #58 ) ;
#35 = CC_DESIGN_APPROVAL ( #133, ( #34 ) ) ;
#36 = PERSON_AND_ORGANIZATION_ROLE ( 'design_owner' ) ;
#37 = DIRECTION ( 'NONE',  ( -0.000000000000000000, -0.000000000000000000, -1.000000000000000000 ) ) ;
#38 = VERTEX_POINT ( 'NONE', #31 ) ;
#39 = ORIENTED_EDGE ( 'NONE', *, *, #208, .F. ) ;
#40 = PERSON_AND_ORGANIZATION ( #241, #79 ) ;
#41 = ORIENTED_EDGE ( 'NONE', *, *, #6, .F. ) ;
#42 = EDGE_CURVE ( 'NONE', #121, #167, #177, .T. ) ;
#43 = FACE_OUTER_BOUND ( 'NONE', #4, .T. ) ;
#44 = SECURITY_CLASSIFICATION_LEVEL ( 'unclassified' ) ;
#45 = CARTESIAN_POINT ( 'NONE',  ( 0.000000000000000000, 0.000000000000000000, 2.000000000000000000 ) ) ;
#46 =( GEOMETRIC_REPRESENTATION_CONTEXT ( 3 ) GLOBAL_UNCERTAINTY_ASSIGNED_CONTEXT ( ( #137 ) ) GLOBAL_UNIT_ASSIGNED_CONTEXT ( ( #18, #95, #231 ) ) REPRESENTATION_CONTEXT ( 'NONE', 'WORKASPACE' ) );
#47 = LINE ( 'NONE', #107, #216 ) ;
#48 = COORDINATED_UNIVERSAL_TIME_OFFSET ( 1, 0, .AHEAD. ) ;
#49 = CYLINDRICAL_SURFACE ( 'NONE', #88, 1.100000000000000089 ) ;
#50 = EDGE_CURVE ( 'NONE', #38, #145, #21, .T. ) ;
#51 = CARTESIAN_POINT ( 'NONE',  ( -1.100000000000000089, 0.000000000000000000, 400.0000000000000000 ) ) ;
#52 = DIRECTION ( 'NONE',  ( 0.000000000000000000, 0.000000000000000000, 1.000000000000000000 ) ) ;
#53 = FACE_OUTER_BOUND ( 'NONE', #174, .T. ) ;
#54 = AXIS2_PLACEMENT_3D ( 'NONE', #197, #73, #168 ) ;
#55 = CARTESIAN_POINT ( 'NONE',  ( 0.000000000000000000, 0.000000000000000000, 0.000000000000000000 ) ) ;
#56 = CIRCLE ( 'NONE', #54, 2.000000000000000000 ) ;
#57 = ADVANCED_FACE ( 'NONE', ( #179 ), #49, .T. ) ;
#58 = DESIGN_CONTEXT ( 'detailed design', #150, 'design' ) ;
#59 = DATE_AND_TIME ( #237, #68 ) ;
#60 = ORIENTED_EDGE ( 'NONE', *, *, #77, .F. ) ;
#61 = AXIS2_PLACEMENT_3D ( 'NONE', #113, #52, #29 ) ;
#62 = CC_DESIGN_APPROVAL ( #228, ( #206 ) ) ;
#63 = APPROVAL_DATE_TIME ( #27, #238 ) ;
#64 = DIRECTION ( 'NONE',  ( 0.000000000000000000, 0.000000000000000000, 1.000000000000000000 ) ) ;
#65 = FACE_BOUND ( 'NONE', #104, .T. ) ;
#66 = DIRECTION ( 'NONE',  ( 1.000000000000000000, 0.000000000000000000, 0.000000000000000000 ) ) ;
#67 = DIRECTION ( 'NONE',  ( 1.000000000000000000, 0.000000000000000000, 0.000000000000000000 ) ) ;
#68 = LOCAL_TIME ( 18, 5, 24.00000000000000000, #99 ) ;
#69 = CIRCLE ( 'NONE', #207, 2.000000000000000000 ) ;
#70 = ADVANCED_FACE ( 'NONE', ( #147 ), #226, .T. ) ;
#71 = APPLICATION_CONTEXT ( 'configuration controlled 3d designs of mechanical parts and assemblies' ) ;
#72 = DIRECTION ( 'NONE',  ( -1.000000000000000000, 0.000000000000000000, 0.000000000000000000 ) ) ;
#73 = DIRECTION ( 'NONE',  ( 0.000000000000000000, 0.000000000000000000, 1.000000000000000000 ) ) ;
#74 = LINE ( 'NONE', #148, #17 ) ;
#75 = PLANE ( 'NONE',  #154 ) ;
#76 = ADVANCED_FACE ( 'NONE', ( #162 ), #132, .F. ) ;
#77 = EDGE_CURVE ( 'NONE', #167, #236, #229, .T. ) ;
#78 = ORIENTED_EDGE ( 'NONE', *, *, #208, .T. ) ;
#79 = ORGANIZATION ( 'NEURÈENÝ', 'NEURÈENÝ', '' ) ;
#80 = ORIENTED_EDGE ( 'NONE', *, *, #42, .T. ) ;
#81 = ORIENTED_EDGE ( 'NONE', *, *, #3, .T. ) ;
#82 = CALENDAR_DATE ( 2023, 13, 2 ) ;
#83 = CARTESIAN_POINT ( 'NONE',  ( 0.000000000000000000, 0.000000000000000000, 0.000000000000000000 ) ) ;
#84 = DIRECTION ( 'NONE',  ( -1.000000000000000000, 0.000000000000000000, 0.000000000000000000 ) ) ;
#85 = PRODUCT_DEFINITION_SHAPE ( 'NONE', 'NONE',  #34 ) ;
#86 = DATE_AND_TIME ( #9, #22 ) ;
#87 = DIRECTION ( 'NONE',  ( 0.000000000000000000, 0.000000000000000000, 1.000000000000000000 ) ) ;
#88 = AXIS2_PLACEMENT_3D ( 'NONE', #110, #248, #72 ) ;
#89 = LOCAL_TIME ( 18, 5, 24.00000000000000000, #193 ) ;
#90 = ORIENTED_EDGE ( 'NONE', *, *, #96, .F. ) ;
#91 = DIRECTION ( 'NONE',  ( 1.000000000000000000, 0.000000000000000000, 0.000000000000000000 ) ) ;
#92 = CC_DESIGN_PERSON_AND_ORGANIZATION_ASSIGNMENT ( #235, #36, ( #159 ) ) ;
#93 = VERTEX_POINT ( 'NONE', #11 ) ;
#94 = LINE ( 'NONE', #185, #139 ) ;
#95 =( NAMED_UNIT ( * ) PLANE_ANGLE_UNIT ( ) SI_UNIT ( $, .RADIAN. ) );
#96 = EDGE_CURVE ( 'NONE', #93, #121, #12, .T. ) ;
#97 = CIRCLE ( 'NONE', #169, 2.000000000000000000 ) ;
#98 = AXIS2_PLACEMENT_3D ( 'NONE', #245, #131, #165 ) ;
#99 = COORDINATED_UNIVERSAL_TIME_OFFSET ( 1, 0, .AHEAD. ) ;
#100 = CC_DESIGN_PERSON_AND_ORGANIZATION_ASSIGNMENT ( #195, #30, ( #135 ) ) ;
#101 = ORIENTED_EDGE ( 'NONE', *, *, #204, .F. ) ;
#102 = CALENDAR_DATE ( 2023, 13, 2 ) ;
#103 = APPROVAL_PERSON_ORGANIZATION ( #40, #228, #151 ) ;
#104 = EDGE_LOOP ( 'NONE', ( #60, #239 ) ) ;
#105 = EDGE_CURVE ( 'NONE', #236, #167, #123, .T. ) ;
#106 = AXIS2_PLACEMENT_3D ( 'NONE', #83, #87, #67 ) ;
#107 = CARTESIAN_POINT ( 'NONE',  ( -2.000000000000000000, 0.000000000000000000, 2.000000000000000000 ) ) ;
#108 = DIRECTION ( 'NONE',  ( 1.000000000000000000, 0.000000000000000000, -0.000000000000000000 ) ) ;
#109 = DIRECTION ( 'NONE',  ( 1.000000000000000000, 0.000000000000000000, 0.000000000000000000 ) ) ;
#110 = CARTESIAN_POINT ( 'NONE',  ( 0.000000000000000000, 0.000000000000000000, 400.0000000000000000 ) ) ;
#111 = ORIENTED_EDGE ( 'NONE', *, *, #50, .F. ) ;
#112 = CIRCLE ( 'NONE', #98, 1.100000000000000089 ) ;
#113 = CARTESIAN_POINT ( 'NONE',  ( 0.000000000000000000, 0.000000000000000000, 0.000000000000000000 ) ) ;
#114 = ORIENTED_EDGE ( 'NONE', *, *, #166, .F. ) ;
#115 = AXIS2_PLACEMENT_3D ( 'NONE', #33, #142, #84 ) ;
#116 = CARTESIAN_POINT ( 'NONE',  ( 0.000000000000000000, 0.000000000000000000, 0.000000000000000000 ) ) ;
#117 = CARTESIAN_POINT ( 'NONE',  ( 1.100000000000000089, 1.347111479062088503E-16, 2.000000000000000000 ) ) ;
#118 = APPROVAL_STATUS ( 'not_yet_approved' ) ;
#119 = DIRECTION ( 'NONE',  ( 1.000000000000000000, 0.000000000000000000, 0.000000000000000000 ) ) ;
#120 = ORIENTED_EDGE ( 'NONE', *, *, #252, .F. ) ;
#121 = VERTEX_POINT ( 'NONE', #15 ) ;
#122 = PERSON_AND_ORGANIZATION ( #241, #79 ) ;
#123 = CIRCLE ( 'NONE', #234, 1.100000000000000089 ) ;
#124 = ADVANCED_FACE ( 'NONE', ( #43 ), #127, .T. ) ;
#125 = PERSON_AND_ORGANIZATION ( #241, #79 ) ;
#126 = DIRECTION ( 'NONE',  ( -0.000000000000000000, -0.000000000000000000, -1.000000000000000000 ) ) ;
#127 = CYLINDRICAL_SURFACE ( 'NONE', #128, 2.000000000000000000 ) ;
#128 = AXIS2_PLACEMENT_3D ( 'NONE', #225, #126, #144 ) ;
#129 = APPROVAL_DATE_TIME ( #218, #228 ) ;
#130 = FACE_OUTER_BOUND ( 'NONE', #215, .T. ) ;
#131 = DIRECTION ( 'NONE',  ( 0.000000000000000000, 0.000000000000000000, 1.000000000000000000 ) ) ;
#132 = PLANE ( 'NONE',  #61 ) ;
#133 = APPROVAL ( #136, 'NEURÈENÝ' ) ;
#134 = CARTESIAN_POINT ( 'NONE',  ( 2.000000000000000000, 2.449293598294706414E-16, 2.000000000000000000 ) ) ;
#135 = SECURITY_CLASSIFICATION ( '', '', #44 ) ;
#136 = APPROVAL_STATUS ( 'not_yet_approved' ) ;
#137 = UNCERTAINTY_MEASURE_WITH_UNIT (LENGTH_MEASURE( 1.000000000000000082E-05 ), #18, 'distance_accuracy_value', 'NONE');
#138 = CC_DESIGN_DATE_AND_TIME_ASSIGNMENT ( #86, #146, ( #135 ) ) ;
#139 = VECTOR ( 'NONE', #37, 1000.000000000000000 ) ;
#140 = ORIENTED_EDGE ( 'NONE', *, *, #50, .T. ) ;
#141 = CARTESIAN_POINT ( 'NONE',  ( 0.000000000000000000, 0.000000000000000000, 2.000000000000000000 ) ) ;
#142 = DIRECTION ( 'NONE',  ( -0.000000000000000000, -0.000000000000000000, -1.000000000000000000 ) ) ;
#143 = PLANE ( 'NONE',  #210 ) ;
#144 = DIRECTION ( 'NONE',  ( -1.000000000000000000, 0.000000000000000000, 0.000000000000000000 ) ) ;
#145 = VERTEX_POINT ( 'NONE', #180 ) ;
#146 = DATE_TIME_ROLE ( 'classification_date' ) ;
#147 = FACE_OUTER_BOUND ( 'NONE', #217, .T. ) ;
#148 = CARTESIAN_POINT ( 'NONE',  ( 2.000000000000000000, 2.449293598294706414E-16, 2.000000000000000000 ) ) ;
#149 = DIRECTION ( 'NONE',  ( 0.000000000000000000, 0.000000000000000000, 1.000000000000000000 ) ) ;
#150 = APPLICATION_CONTEXT ( 'configuration controlled 3d designs of mechanical parts and assemblies' ) ;
#151 = APPROVAL_ROLE ( '' ) ;
#152 = DIRECTION ( 'NONE',  ( 0.000000000000000000, 0.000000000000000000, 1.000000000000000000 ) ) ;
#153 = APPROVAL_PERSON_ORGANIZATION ( #122, #133, #23 ) ;
#154 = AXIS2_PLACEMENT_3D ( 'NONE', #196, #149, #108 ) ;
#155 = PERSON_AND_ORGANIZATION_ROLE ( 'creator' ) ;
#156 = COORDINATED_UNIVERSAL_TIME_OFFSET ( 1, 0, .AHEAD. ) ;
#157 = ADVANCED_BREP_SHAPE_REPRESENTATION ( '3443', ( #183, #254 ), #46 ) ;
#158 = ORIENTED_EDGE ( 'NONE', *, *, #96, .T. ) ;
#159 = PRODUCT ( '3443', '3443', '', ( #170 ) ) ;
#160 = DIRECTION ( 'NONE',  ( -0.000000000000000000, -0.000000000000000000, -1.000000000000000000 ) ) ;
#161 = DIRECTION ( 'NONE',  ( 0.000000000000000000, 0.000000000000000000, 1.000000000000000000 ) ) ;
#162 = FACE_OUTER_BOUND ( 'NONE', #164, .T. ) ;
#163 = APPROVAL_PERSON_ORGANIZATION ( #125, #238, #172 ) ;
#164 = EDGE_LOOP ( 'NONE', ( #187, #111 ) ) ;
#165 = DIRECTION ( 'NONE',  ( 1.000000000000000000, 0.000000000000000000, 0.000000000000000000 ) ) ;
#166 = EDGE_CURVE ( 'NONE', #1, #145, #47, .T. ) ;
#167 = VERTEX_POINT ( 'NONE', #176 ) ;
#168 = DIRECTION ( 'NONE',  ( 1.000000000000000000, 0.000000000000000000, 0.000000000000000000 ) ) ;
#169 = AXIS2_PLACEMENT_3D ( 'NONE', #45, #161, #243 ) ;
#170 = MECHANICAL_CONTEXT ( 'NONE', #71, 'mechanical' ) ;
#171 = ADVANCED_FACE ( 'NONE', ( #224 ), #247, .T. ) ;
#172 = APPROVAL_ROLE ( '' ) ;
#173 = APPROVAL_DATE_TIME ( #186, #133 ) ;
#174 = EDGE_LOOP ( 'NONE', ( #209, #158 ) ) ;
#175 = DIRECTION ( 'NONE',  ( 1.000000000000000000, 0.000000000000000000, -0.000000000000000000 ) ) ;
#176 = CARTESIAN_POINT ( 'NONE',  ( -1.100000000000000089, 0.000000000000000000, 2.000000000000000000 ) ) ;
#177 = LINE ( 'NONE', #51, #184 ) ;
#178 = CARTESIAN_POINT ( 'NONE',  ( 0.000000000000000000, 0.000000000000000000, 400.0000000000000000 ) ) ;
#179 = FACE_OUTER_BOUND ( 'NONE', #26, .T. ) ;
#180 = CARTESIAN_POINT ( 'NONE',  ( -2.000000000000000000, 0.000000000000000000, 0.000000000000000000 ) ) ;
#181 = DIRECTION ( 'NONE',  ( 0.000000000000000000, 0.000000000000000000, 1.000000000000000000 ) ) ;
#182 = ORIENTED_EDGE ( 'NONE', *, *, #166, .T. ) ;
#183 = MANIFOLD_SOLID_BREP ( 'Pøidat vysunutím3', #189 ) ;
#184 = VECTOR ( 'NONE', #10, 1000.000000000000000 ) ;
#185 = CARTESIAN_POINT ( 'NONE',  ( 1.100000000000000089, 1.347111479062088503E-16, 400.0000000000000000 ) ) ;
#186 = DATE_AND_TIME ( #102, #223 ) ;
#187 = ORIENTED_EDGE ( 'NONE', *, *, #19, .F. ) ;
#188 = COORDINATED_UNIVERSAL_TIME_OFFSET ( 1, 0, .AHEAD. ) ;
#189 = CLOSED_SHELL ( 'NONE', ( #171, #124, #70, #28, #76, #57, #24 ) ) ;
#190 = AXIS2_PLACEMENT_3D ( 'NONE', #178, #14, #8 ) ;
#191 = APPROVAL_STATUS ( 'not_yet_approved' ) ;
#192 = ORIENTED_EDGE ( 'NONE', *, *, #252, .T. ) ;
#193 = COORDINATED_UNIVERSAL_TIME_OFFSET ( 1, 0, .AHEAD. ) ;
#194 = PERSON_AND_ORGANIZATION ( #241, #79 ) ;
#195 = PERSON_AND_ORGANIZATION ( #241, #79 ) ;
#196 = CARTESIAN_POINT ( 'NONE',  ( 0.000000000000000000, 0.000000000000000000, 400.0000000000000000 ) ) ;
#197 = CARTESIAN_POINT ( 'NONE',  ( 0.000000000000000000, 0.000000000000000000, 2.000000000000000000 ) ) ;
#198 = CC_DESIGN_DATE_AND_TIME_ASSIGNMENT ( #59, #214, ( #34 ) ) ;
#199 = ORIENTED_EDGE ( 'NONE', *, *, #77, .T. ) ;
#200 = DIRECTION ( 'NONE',  ( -0.000000000000000000, -0.000000000000000000, -1.000000000000000000 ) ) ;
#201 = AXIS2_PLACEMENT_3D ( 'NONE', #141, #64, #109 ) ;
#202 = ORIENTED_EDGE ( 'NONE', *, *, #105, .T. ) ;
#203 = DIRECTION ( 'NONE',  ( 1.000000000000000000, 0.000000000000000000, 0.000000000000000000 ) ) ;
#204 = EDGE_CURVE ( 'NONE', #121, #93, #112, .T. ) ;
#205 = DIRECTION ( 'NONE',  ( 0.000000000000000000, 0.000000000000000000, 1.000000000000000000 ) ) ;
#206 = PRODUCT_DEFINITION_FORMATION_WITH_SPECIFIED_SOURCE ( 'LIBOVOLNÝ', '', #159, .NOT_KNOWN. ) ;
#207 = AXIS2_PLACEMENT_3D ( 'NONE', #55, #227, #203 ) ;
#208 = EDGE_CURVE ( 'NONE', #250, #1, #56, .T. ) ;
#209 = ORIENTED_EDGE ( 'NONE', *, *, #204, .T. ) ;
#210 = AXIS2_PLACEMENT_3D ( 'NONE', #222, #205, #175 ) ;
#211 = ORIENTED_EDGE ( 'NONE', *, *, #19, .T. ) ;
#212 = APPLICATION_PROTOCOL_DEFINITION ( 'international standard', 'config_control_design', 1994, #150 ) ;
#213 = ORIENTED_EDGE ( 'NONE', *, *, #3, .F. ) ;
#214 = DATE_TIME_ROLE ( 'creation_date' ) ;
#215 = EDGE_LOOP ( 'NONE', ( #233, #78 ) ) ;
#216 = VECTOR ( 'NONE', #160, 1000.000000000000000 ) ;
#217 = EDGE_LOOP ( 'NONE', ( #213, #41, #182, #211 ) ) ;
#218 = DATE_AND_TIME ( #82, #246 ) ;
#219 = CARTESIAN_POINT ( 'NONE',  ( 0.000000000000000000, 0.000000000000000000, 400.0000000000000000 ) ) ;
#220 = DIRECTION ( 'NONE',  ( 0.000000000000000000, 0.000000000000000000, 1.000000000000000000 ) ) ;
#221 = PERSON_AND_ORGANIZATION ( #241, #79 ) ;
#222 = CARTESIAN_POINT ( 'NONE',  ( 0.000000000000000000, 0.000000000000000000, 2.000000000000000000 ) ) ;
#223 = LOCAL_TIME ( 18, 5, 24.00000000000000000, #188 ) ;
#224 = FACE_OUTER_BOUND ( 'NONE', #7, .T. ) ;
#225 = CARTESIAN_POINT ( 'NONE',  ( 0.000000000000000000, 0.000000000000000000, 2.000000000000000000 ) ) ;
#226 = CYLINDRICAL_SURFACE ( 'NONE', #115, 2.000000000000000000 ) ;
#227 = DIRECTION ( 'NONE',  ( 0.000000000000000000, 0.000000000000000000, 1.000000000000000000 ) ) ;
#228 = APPROVAL ( #118, 'NEURÈENÝ' ) ;
#229 = CIRCLE ( 'NONE', #201, 1.100000000000000089 ) ;
#230 = CC_DESIGN_APPROVAL ( #238, ( #135 ) ) ;
#231 =( NAMED_UNIT ( * ) SI_UNIT ( $, .STERADIAN. ) SOLID_ANGLE_UNIT ( ) );
#232 = CC_DESIGN_PERSON_AND_ORGANIZATION_ASSIGNMENT ( #221, #242, ( #206 ) ) ;
#233 = ORIENTED_EDGE ( 'NONE', *, *, #6, .T. ) ;
#234 = AXIS2_PLACEMENT_3D ( 'NONE', #249, #181, #91 ) ;
#235 = PERSON_AND_ORGANIZATION ( #241, #79 ) ;
#236 = VERTEX_POINT ( 'NONE', #117 ) ;
#237 = CALENDAR_DATE ( 2023, 13, 2 ) ;
#238 = APPROVAL ( #191, 'NEURÈENÝ' ) ;
#239 = ORIENTED_EDGE ( 'NONE', *, *, #105, .F. ) ;
#240 = AXIS2_PLACEMENT_3D ( 'NONE', #219, #220, #66 ) ;
#241 = PERSON ( 'NEURÈENÝ', 'NEURÈENÝ', 'NEURÈENÝ', ('NEURÈENÝ'), ('NEURÈENÝ'), ('NEURÈENÝ') ) ;
#242 = PERSON_AND_ORGANIZATION_ROLE ( 'design_supplier' ) ;
#243 = DIRECTION ( 'NONE',  ( 1.000000000000000000, 0.000000000000000000, 0.000000000000000000 ) ) ;
#244 = CC_DESIGN_PERSON_AND_ORGANIZATION_ASSIGNMENT ( #2, #155, ( #34 ) ) ;
#245 = CARTESIAN_POINT ( 'NONE',  ( 0.000000000000000000, 0.000000000000000000, 400.0000000000000000 ) ) ;
#246 = LOCAL_TIME ( 18, 5, 24.00000000000000000, #156 ) ;
#247 = CYLINDRICAL_SURFACE ( 'NONE', #190, 1.100000000000000089 ) ;
#248 = DIRECTION ( 'NONE',  ( -0.000000000000000000, -0.000000000000000000, -1.000000000000000000 ) ) ;
#249 = CARTESIAN_POINT ( 'NONE',  ( 0.000000000000000000, 0.000000000000000000, 2.000000000000000000 ) ) ;
#250 = VERTEX_POINT ( 'NONE', #134 ) ;
#251 = ORIENTED_EDGE ( 'NONE', *, *, #42, .F. ) ;
#252 = EDGE_CURVE ( 'NONE', #93, #236, #94, .T. ) ;
#253 = APPLICATION_PROTOCOL_DEFINITION ( 'international standard', 'config_control_design', 1994, #71 ) ;
#254 = AXIS2_PLACEMENT_3D ( 'NONE', #116, #152, #119 ) ;
#255 = PRODUCT_RELATED_PRODUCT_CATEGORY ( 'detail', '', ( #159 ) ) ;
ENDSEC;
END-ISO-10303-21;
