ISO-10303-21;
HEADER;
FILE_DESCRIPTION (( 'STEP AP203' ),
    '1' );
FILE_NAME ('94b5.STEP',
    '2023-02-13T16:17:50',
    ( '' ),
    ( '' ),
    'SwSTEP 2.0',
    'SolidWorks 2019',
    '' );
FILE_SCHEMA (( 'CONFIG_CONTROL_DESIGN' ));
ENDSEC;

DATA;
#1 = CARTESIAN_POINT ( 'NONE',  ( 5.000000000000000000, 6.123233995736766282E-16, 5.000000000000000000 ) ) ;
#2 = CARTESIAN_POINT ( 'NONE',  ( -2.500000000000000000, 0.000000000000000000, 5.000000000000000000 ) ) ;
#3 = CARTESIAN_POINT ( 'NONE',  ( 0.000000000000000000, 0.000000000000000000, 0.000000000000000000 ) ) ;
#4 = VERTEX_POINT ( 'NONE', #40 ) ;
#5 = PERSON ( 'NEURÈENÝ', 'NEURÈENÝ', 'NEURÈENÝ', ('NEURÈENÝ'), ('NEURÈENÝ'), ('NEURÈENÝ') ) ;
#6 =( NAMED_UNIT ( * ) PLANE_ANGLE_UNIT ( ) SI_UNIT ( $, .RADIAN. ) );
#7 = CC_DESIGN_PERSON_AND_ORGANIZATION_ASSIGNMENT ( #194, #157, ( #184 ) ) ;
#8 = CIRCLE ( 'NONE', #98, 5.000000000000000000 ) ;
#9 = ORGANIZATION ( 'NEURÈENÝ', 'NEURÈENÝ', '' ) ;
#10 = EDGE_CURVE ( 'NONE', #15, #143, #8, .T. ) ;
#11 = DIRECTION ( 'NONE',  ( 1.000000000000000000, 0.000000000000000000, 0.000000000000000000 ) ) ;
#12 = AXIS2_PLACEMENT_3D ( 'NONE', #223, #172, #148 ) ;
#13 = PERSON_AND_ORGANIZATION ( #5, #9 ) ;
#14 = CC_DESIGN_DATE_AND_TIME_ASSIGNMENT ( #215, #99, ( #80 ) ) ;
#15 = VERTEX_POINT ( 'NONE', #239 ) ;
#16 = AXIS2_PLACEMENT_3D ( 'NONE', #128, #70, #146 ) ;
#17 = ORIENTED_EDGE ( 'NONE', *, *, #35, .F. ) ;
#18 = DIRECTION ( 'NONE',  ( -0.000000000000000000, -0.000000000000000000, -1.000000000000000000 ) ) ;
#19 = CIRCLE ( 'NONE', #16, 2.500000000000000000 ) ;
#20 = ORIENTED_EDGE ( 'NONE', *, *, #216, .F. ) ;
#21 = APPROVAL ( #237, 'NEURÈENÝ' ) ;
#22 = DIRECTION ( 'NONE',  ( 0.000000000000000000, 0.000000000000000000, 1.000000000000000000 ) ) ;
#23 = DIRECTION ( 'NONE',  ( 1.000000000000000000, 0.000000000000000000, -0.000000000000000000 ) ) ;
#24 = AXIS2_PLACEMENT_3D ( 'NONE', #102, #109, #240 ) ;
#25 = EDGE_LOOP ( 'NONE', ( #199, #217 ) ) ;
#26 = APPROVAL_PERSON_ORGANIZATION ( #13, #21, #200 ) ;
#27 = VERTEX_POINT ( 'NONE', #203 ) ;
#28 = DIRECTION ( 'NONE',  ( 1.000000000000000000, 0.000000000000000000, 0.000000000000000000 ) ) ;
#29 = DIRECTION ( 'NONE',  ( 0.000000000000000000, 0.000000000000000000, 1.000000000000000000 ) ) ;
#30 = APPROVAL ( #137, 'NEURÈENÝ' ) ;
#31 = ORIENTED_EDGE ( 'NONE', *, *, #135, .F. ) ;
#32 = CALENDAR_DATE ( 2023, 13, 2 ) ;
#33 = DATE_TIME_ROLE ( 'creation_date' ) ;
#34 = DIRECTION ( 'NONE',  ( 1.000000000000000000, 0.000000000000000000, -0.000000000000000000 ) ) ;
#35 = EDGE_CURVE ( 'NONE', #27, #15, #48, .T. ) ;
#36 = ORIENTED_EDGE ( 'NONE', *, *, #35, .T. ) ;
#37 = COORDINATED_UNIVERSAL_TIME_OFFSET ( 1, 0, .AHEAD. ) ;
#38 = VERTEX_POINT ( 'NONE', #149 ) ;
#39 = PRODUCT_DEFINITION_FORMATION_WITH_SPECIFIED_SOURCE ( 'LIBOVOLNÝ', '', #94, .NOT_KNOWN. ) ;
#40 = CARTESIAN_POINT ( 'NONE',  ( -2.500000000000000000, 0.000000000000000000, 250.0000000000000000 ) ) ;
#41 = VERTEX_POINT ( 'NONE', #2 ) ;
#42 = CYLINDRICAL_SURFACE ( 'NONE', #210, 5.000000000000000000 ) ;
#43 = ADVANCED_FACE ( 'NONE', ( #185 ), #218, .T. ) ;
#44 = DIRECTION ( 'NONE',  ( -1.000000000000000000, 0.000000000000000000, 0.000000000000000000 ) ) ;
#45 = LINE ( 'NONE', #87, #211 ) ;
#46 = ORIENTED_EDGE ( 'NONE', *, *, #209, .T. ) ;
#47 = CC_DESIGN_PERSON_AND_ORGANIZATION_ASSIGNMENT ( #192, #230, ( #94 ) ) ;
#48 = LINE ( 'NONE', #1, #241 ) ;
#49 = ORIENTED_EDGE ( 'NONE', *, *, #124, .F. ) ;
#50 = APPLICATION_CONTEXT ( 'configuration controlled 3d designs of mechanical parts and assemblies' ) ;
#51 = LOCAL_TIME ( 17, 17, 50.00000000000000000, #228 ) ;
#52 = DIRECTION ( 'NONE',  ( 1.000000000000000000, 0.000000000000000000, 0.000000000000000000 ) ) ;
#53 = CARTESIAN_POINT ( 'NONE',  ( 0.000000000000000000, 0.000000000000000000, 5.000000000000000000 ) ) ;
#54 = AXIS2_PLACEMENT_3D ( 'NONE', #243, #18, #44 ) ;
#55 = EDGE_CURVE ( 'NONE', #156, #27, #63, .T. ) ;
#56 = CALENDAR_DATE ( 2023, 13, 2 ) ;
#57 = LINE ( 'NONE', #227, #182 ) ;
#58 = EDGE_CURVE ( 'NONE', #27, #156, #127, .T. ) ;
#59 = DATE_AND_TIME ( #252, #251 ) ;
#60 = UNCERTAINTY_MEASURE_WITH_UNIT (LENGTH_MEASURE( 1.000000000000000082E-05 ), #225, 'distance_accuracy_value', 'NONE');
#61 = EDGE_LOOP ( 'NONE', ( #93, #49 ) ) ;
#62 = COORDINATED_UNIVERSAL_TIME_OFFSET ( 1, 0, .AHEAD. ) ;
#63 = CIRCLE ( 'NONE', #85, 5.000000000000000000 ) ;
#64 = APPROVAL_ROLE ( '' ) ;
#65 = CC_DESIGN_APPROVAL ( #21, ( #80 ) ) ;
#66 = VERTEX_POINT ( 'NONE', #92 ) ;
#67 = DIRECTION ( 'NONE',  ( -1.000000000000000000, 0.000000000000000000, 0.000000000000000000 ) ) ;
#68 = EDGE_LOOP ( 'NONE', ( #126, #129, #141, #31 ) ) ;
#69 = ADVANCED_FACE ( 'NONE', ( #89 ), #42, .T. ) ;
#70 = DIRECTION ( 'NONE',  ( 0.000000000000000000, 0.000000000000000000, 1.000000000000000000 ) ) ;
#71 = EDGE_LOOP ( 'NONE', ( #175, #36, #196, #139 ) ) ;
#72 = CARTESIAN_POINT ( 'NONE',  ( 0.000000000000000000, 0.000000000000000000, 5.000000000000000000 ) ) ;
#73 = CARTESIAN_POINT ( 'NONE',  ( 0.000000000000000000, 0.000000000000000000, 5.000000000000000000 ) ) ;
#74 = CARTESIAN_POINT ( 'NONE',  ( 0.000000000000000000, 0.000000000000000000, 5.000000000000000000 ) ) ;
#75 = DIRECTION ( 'NONE',  ( 0.000000000000000000, 0.000000000000000000, 1.000000000000000000 ) ) ;
#76 = MECHANICAL_CONTEXT ( 'NONE', #220, 'mechanical' ) ;
#77 = CARTESIAN_POINT ( 'NONE',  ( 0.000000000000000000, 0.000000000000000000, 0.000000000000000000 ) ) ;
#78 = ADVANCED_FACE ( 'NONE', ( #168 ), #224, .F. ) ;
#79 = APPROVAL_STATUS ( 'not_yet_approved' ) ;
#80 = SECURITY_CLASSIFICATION ( '', '', #159 ) ;
#81 = PERSON_AND_ORGANIZATION_ROLE ( 'classification_officer' ) ;
#82 = APPROVAL_PERSON_ORGANIZATION ( #114, #30, #64 ) ;
#83 = APPROVAL ( #79, 'NEURÈENÝ' ) ;
#84 = ADVANCED_BREP_SHAPE_REPRESENTATION ( '94b5', ( #147, #158 ), #118 ) ;
#85 = AXIS2_PLACEMENT_3D ( 'NONE', #72, #205, #28 ) ;
#86 = ORIENTED_EDGE ( 'NONE', *, *, #247, .T. ) ;
#87 = CARTESIAN_POINT ( 'NONE',  ( -2.500000000000000000, 0.000000000000000000, 250.0000000000000000 ) ) ;
#88 = DIRECTION ( 'NONE',  ( -1.000000000000000000, 0.000000000000000000, 0.000000000000000000 ) ) ;
#89 = FACE_OUTER_BOUND ( 'NONE', #201, .T. ) ;
#90 = CC_DESIGN_PERSON_AND_ORGANIZATION_ASSIGNMENT ( #233, #81, ( #80 ) ) ;
#91 = AXIS2_PLACEMENT_3D ( 'NONE', #130, #75, #34 ) ;
#92 = CARTESIAN_POINT ( 'NONE',  ( 2.500000000000000000, 3.061616997868383141E-16, 250.0000000000000000 ) ) ;
#93 = ORIENTED_EDGE ( 'NONE', *, *, #160, .F. ) ;
#94 = PRODUCT ( '94b5', '94b5', '', ( #76 ) ) ;
#95 = DIRECTION ( 'NONE',  ( -0.000000000000000000, -0.000000000000000000, -1.000000000000000000 ) ) ;
#96 = APPLICATION_PROTOCOL_DEFINITION ( 'international standard', 'config_control_design', 1994, #220 ) ;
#97 = DIRECTION ( 'NONE',  ( -0.000000000000000000, -0.000000000000000000, -1.000000000000000000 ) ) ;
#98 = AXIS2_PLACEMENT_3D ( 'NONE', #107, #186, #253 ) ;
#99 = DATE_TIME_ROLE ( 'classification_date' ) ;
#100 = PERSON_AND_ORGANIZATION_ROLE ( 'creator' ) ;
#101 = APPROVAL_DATE_TIME ( #117, #21 ) ;
#102 = CARTESIAN_POINT ( 'NONE',  ( 0.000000000000000000, 0.000000000000000000, 250.0000000000000000 ) ) ;
#103 = AXIS2_PLACEMENT_3D ( 'NONE', #178, #190, #52 ) ;
#104 = CARTESIAN_POINT ( 'NONE',  ( 0.000000000000000000, 0.000000000000000000, 5.000000000000000000 ) ) ;
#105 = EDGE_CURVE ( 'NONE', #66, #4, #133, .T. ) ;
#106 = ORIENTED_EDGE ( 'NONE', *, *, #58, .T. ) ;
#107 = CARTESIAN_POINT ( 'NONE',  ( 0.000000000000000000, 0.000000000000000000, 0.000000000000000000 ) ) ;
#108 = CIRCLE ( 'NONE', #103, 2.500000000000000000 ) ;
#109 = DIRECTION ( 'NONE',  ( -0.000000000000000000, -0.000000000000000000, -1.000000000000000000 ) ) ;
#110 = DIRECTION ( 'NONE',  ( 1.000000000000000000, 0.000000000000000000, 0.000000000000000000 ) ) ;
#111 = ADVANCED_FACE ( 'NONE', ( #121 ), #204, .T. ) ;
#112 = AXIS2_PLACEMENT_3D ( 'NONE', #53, #134, #195 ) ;
#113 = DATE_AND_TIME ( #32, #162 ) ;
#114 = PERSON_AND_ORGANIZATION ( #5, #9 ) ;
#115 = PERSON_AND_ORGANIZATION ( #5, #9 ) ;
#116 = ADVANCED_FACE ( 'NONE', ( #221 ), #207, .T. ) ;
#117 = DATE_AND_TIME ( #236, #179 ) ;
#118 =( GEOMETRIC_REPRESENTATION_CONTEXT ( 3 ) GLOBAL_UNCERTAINTY_ASSIGNED_CONTEXT ( ( #60 ) ) GLOBAL_UNIT_ASSIGNED_CONTEXT ( ( #225, #6, #249 ) ) REPRESENTATION_CONTEXT ( 'NONE', 'WORKASPACE' ) );
#119 = CALENDAR_DATE ( 2023, 13, 2 ) ;
#120 = EDGE_LOOP ( 'NONE', ( #20, #234, #152, #145 ) ) ;
#121 = FACE_OUTER_BOUND ( 'NONE', #71, .T. ) ;
#122 = FACE_OUTER_BOUND ( 'NONE', #165, .T. ) ;
#123 = APPROVAL_PERSON_ORGANIZATION ( #246, #83, #226 ) ;
#124 = EDGE_CURVE ( 'NONE', #38, #41, #169, .T. ) ;
#125 = DIRECTION ( 'NONE',  ( -0.000000000000000000, -0.000000000000000000, -1.000000000000000000 ) ) ;
#126 = ORIENTED_EDGE ( 'NONE', *, *, #105, .F. ) ;
#127 = CIRCLE ( 'NONE', #174, 5.000000000000000000 ) ;
#128 = CARTESIAN_POINT ( 'NONE',  ( 0.000000000000000000, 0.000000000000000000, 5.000000000000000000 ) ) ;
#129 = ORIENTED_EDGE ( 'NONE', *, *, #216, .T. ) ;
#130 = CARTESIAN_POINT ( 'NONE',  ( 0.000000000000000000, 0.000000000000000000, 250.0000000000000000 ) ) ;
#131 = CC_DESIGN_DATE_AND_TIME_ASSIGNMENT ( #212, #33, ( #184 ) ) ;
#132 = FACE_OUTER_BOUND ( 'NONE', #191, .T. ) ;
#133 = CIRCLE ( 'NONE', #12, 2.500000000000000000 ) ;
#134 = DIRECTION ( 'NONE',  ( 0.000000000000000000, 0.000000000000000000, 1.000000000000000000 ) ) ;
#135 = EDGE_CURVE ( 'NONE', #4, #41, #45, .T. ) ;
#136 = APPROVAL_DATE_TIME ( #113, #83 ) ;
#137 = APPROVAL_STATUS ( 'not_yet_approved' ) ;
#138 = CLOSED_SHELL ( 'NONE', ( #43, #111, #69, #202, #78, #116, #167 ) ) ;
#139 = ORIENTED_EDGE ( 'NONE', *, *, #209, .F. ) ;
#140 = PERSON_AND_ORGANIZATION ( #5, #9 ) ;
#141 = ORIENTED_EDGE ( 'NONE', *, *, #124, .T. ) ;
#142 = LOCAL_TIME ( 17, 17, 50.00000000000000000, #231 ) ;
#143 = VERTEX_POINT ( 'NONE', #150 ) ;
#144 = DIRECTION ( 'NONE',  ( -0.000000000000000000, -0.000000000000000000, -1.000000000000000000 ) ) ;
#145 = ORIENTED_EDGE ( 'NONE', *, *, #160, .T. ) ;
#146 = DIRECTION ( 'NONE',  ( 1.000000000000000000, 0.000000000000000000, 0.000000000000000000 ) ) ;
#147 = MANIFOLD_SOLID_BREP ( 'Pøidat vysunutím3', #138 ) ;
#148 = DIRECTION ( 'NONE',  ( 1.000000000000000000, 0.000000000000000000, 0.000000000000000000 ) ) ;
#149 = CARTESIAN_POINT ( 'NONE',  ( 2.500000000000000000, 3.061616997868383141E-16, 5.000000000000000000 ) ) ;
#150 = CARTESIAN_POINT ( 'NONE',  ( -5.000000000000000000, 0.000000000000000000, 0.000000000000000000 ) ) ;
#151 = AXIS2_PLACEMENT_3D ( 'NONE', #3, #244, #23 ) ;
#152 = ORIENTED_EDGE ( 'NONE', *, *, #135, .T. ) ;
#153 = FACE_BOUND ( 'NONE', #61, .T. ) ;
#154 = APPLICATION_PROTOCOL_DEFINITION ( 'international standard', 'config_control_design', 1994, #50 ) ;
#155 = ORIENTED_EDGE ( 'NONE', *, *, #173, .T. ) ;
#156 = VERTEX_POINT ( 'NONE', #166 ) ;
#157 = PERSON_AND_ORGANIZATION_ROLE ( 'creator' ) ;
#158 = AXIS2_PLACEMENT_3D ( 'NONE', #77, #248, #11 ) ;
#159 = SECURITY_CLASSIFICATION_LEVEL ( 'unclassified' ) ;
#160 = EDGE_CURVE ( 'NONE', #41, #38, #19, .T. ) ;
#161 = PERSON_AND_ORGANIZATION_ROLE ( 'design_supplier' ) ;
#162 = LOCAL_TIME ( 17, 17, 50.00000000000000000, #208 ) ;
#163 = PRODUCT_RELATED_PRODUCT_CATEGORY ( 'detail', '', ( #94 ) ) ;
#164 = ORIENTED_EDGE ( 'NONE', *, *, #105, .T. ) ;
#165 = EDGE_LOOP ( 'NONE', ( #86, #164 ) ) ;
#166 = CARTESIAN_POINT ( 'NONE',  ( -5.000000000000000000, 0.000000000000000000, 5.000000000000000000 ) ) ;
#167 = ADVANCED_FACE ( 'NONE', ( #122 ), #177, .T. ) ;
#168 = FACE_OUTER_BOUND ( 'NONE', #25, .T. ) ;
#169 = CIRCLE ( 'NONE', #181, 2.500000000000000000 ) ;
#170 = PRODUCT_DEFINITION_SHAPE ( 'NONE', 'NONE',  #184 ) ;
#171 = DIRECTION ( 'NONE',  ( -0.000000000000000000, -0.000000000000000000, -1.000000000000000000 ) ) ;
#172 = DIRECTION ( 'NONE',  ( 0.000000000000000000, 0.000000000000000000, 1.000000000000000000 ) ) ;
#173 = EDGE_CURVE ( 'NONE', #143, #15, #254, .T. ) ;
#174 = AXIS2_PLACEMENT_3D ( 'NONE', #104, #22, #238 ) ;
#175 = ORIENTED_EDGE ( 'NONE', *, *, #58, .F. ) ;
#176 = CARTESIAN_POINT ( 'NONE',  ( 2.500000000000000000, 3.061616997868383141E-16, 250.0000000000000000 ) ) ;
#177 = PLANE ( 'NONE',  #91 ) ;
#178 = CARTESIAN_POINT ( 'NONE',  ( 0.000000000000000000, 0.000000000000000000, 250.0000000000000000 ) ) ;
#179 = LOCAL_TIME ( 17, 17, 50.00000000000000000, #37 ) ;
#180 = DESIGN_CONTEXT ( 'detailed design', #50, 'design' ) ;
#181 = AXIS2_PLACEMENT_3D ( 'NONE', #74, #183, #255 ) ;
#182 = VECTOR ( 'NONE', #95, 1000.000000000000000 ) ;
#183 = DIRECTION ( 'NONE',  ( 0.000000000000000000, 0.000000000000000000, 1.000000000000000000 ) ) ;
#184 = PRODUCT_DEFINITION ( 'NEZNÁMÝ', '', #39, #180 ) ;
#185 = FACE_OUTER_BOUND ( 'NONE', #68, .T. ) ;
#186 = DIRECTION ( 'NONE',  ( 0.000000000000000000, 0.000000000000000000, 1.000000000000000000 ) ) ;
#187 = CC_DESIGN_APPROVAL ( #30, ( #39 ) ) ;
#188 = DIRECTION ( 'NONE',  ( -0.000000000000000000, -0.000000000000000000, -1.000000000000000000 ) ) ;
#189 = PLANE ( 'NONE',  #112 ) ;
#190 = DIRECTION ( 'NONE',  ( 0.000000000000000000, 0.000000000000000000, 1.000000000000000000 ) ) ;
#191 = EDGE_LOOP ( 'NONE', ( #245, #106 ) ) ;
#192 = PERSON_AND_ORGANIZATION ( #5, #9 ) ;
#193 = CC_DESIGN_APPROVAL ( #83, ( #184 ) ) ;
#194 = PERSON_AND_ORGANIZATION ( #5, #9 ) ;
#195 = DIRECTION ( 'NONE',  ( 1.000000000000000000, 0.000000000000000000, -0.000000000000000000 ) ) ;
#196 = ORIENTED_EDGE ( 'NONE', *, *, #10, .T. ) ;
#197 = APPROVAL_DATE_TIME ( #59, #30 ) ;
#198 = ORIENTED_EDGE ( 'NONE', *, *, #55, .F. ) ;
#199 = ORIENTED_EDGE ( 'NONE', *, *, #173, .F. ) ;
#200 = APPROVAL_ROLE ( '' ) ;
#201 = EDGE_LOOP ( 'NONE', ( #17, #198, #46, #155 ) ) ;
#202 = ADVANCED_FACE ( 'NONE', ( #153, #132 ), #189, .T. ) ;
#203 = CARTESIAN_POINT ( 'NONE',  ( 5.000000000000000000, 6.123233995736766282E-16, 5.000000000000000000 ) ) ;
#204 = CYLINDRICAL_SURFACE ( 'NONE', #232, 5.000000000000000000 ) ;
#205 = DIRECTION ( 'NONE',  ( 0.000000000000000000, 0.000000000000000000, 1.000000000000000000 ) ) ;
#206 = CC_DESIGN_SECURITY_CLASSIFICATION ( #80, ( #39 ) ) ;
#207 = CYLINDRICAL_SURFACE ( 'NONE', #54, 2.500000000000000000 ) ;
#208 = COORDINATED_UNIVERSAL_TIME_OFFSET ( 1, 0, .AHEAD. ) ;
#209 = EDGE_CURVE ( 'NONE', #156, #143, #57, .T. ) ;
#210 = AXIS2_PLACEMENT_3D ( 'NONE', #219, #125, #88 ) ;
#211 = VECTOR ( 'NONE', #188, 1000.000000000000000 ) ;
#212 = DATE_AND_TIME ( #56, #51 ) ;
#213 = CARTESIAN_POINT ( 'NONE',  ( 0.000000000000000000, 0.000000000000000000, 0.000000000000000000 ) ) ;
#214 = VECTOR ( 'NONE', #97, 1000.000000000000000 ) ;
#215 = DATE_AND_TIME ( #119, #142 ) ;
#216 = EDGE_CURVE ( 'NONE', #66, #38, #250, .T. ) ;
#217 = ORIENTED_EDGE ( 'NONE', *, *, #10, .F. ) ;
#218 = CYLINDRICAL_SURFACE ( 'NONE', #24, 2.500000000000000000 ) ;
#219 = CARTESIAN_POINT ( 'NONE',  ( 0.000000000000000000, 0.000000000000000000, 5.000000000000000000 ) ) ;
#220 = APPLICATION_CONTEXT ( 'configuration controlled 3d designs of mechanical parts and assemblies' ) ;
#221 = FACE_OUTER_BOUND ( 'NONE', #120, .T. ) ;
#222 = CC_DESIGN_PERSON_AND_ORGANIZATION_ASSIGNMENT ( #115, #100, ( #39 ) ) ;
#223 = CARTESIAN_POINT ( 'NONE',  ( 0.000000000000000000, 0.000000000000000000, 250.0000000000000000 ) ) ;
#224 = PLANE ( 'NONE',  #151 ) ;
#225 =( LENGTH_UNIT ( ) NAMED_UNIT ( * ) SI_UNIT ( .MILLI., .METRE. ) );
#226 = APPROVAL_ROLE ( '' ) ;
#227 = CARTESIAN_POINT ( 'NONE',  ( -5.000000000000000000, 0.000000000000000000, 5.000000000000000000 ) ) ;
#228 = COORDINATED_UNIVERSAL_TIME_OFFSET ( 1, 0, .AHEAD. ) ;
#229 = AXIS2_PLACEMENT_3D ( 'NONE', #213, #29, #110 ) ;
#230 = PERSON_AND_ORGANIZATION_ROLE ( 'design_owner' ) ;
#231 = COORDINATED_UNIVERSAL_TIME_OFFSET ( 1, 0, .AHEAD. ) ;
#232 = AXIS2_PLACEMENT_3D ( 'NONE', #73, #171, #67 ) ;
#233 = PERSON_AND_ORGANIZATION ( #5, #9 ) ;
#234 = ORIENTED_EDGE ( 'NONE', *, *, #247, .F. ) ;
#235 = SHAPE_DEFINITION_REPRESENTATION ( #170, #84 ) ;
#236 = CALENDAR_DATE ( 2023, 13, 2 ) ;
#237 = APPROVAL_STATUS ( 'not_yet_approved' ) ;
#238 = DIRECTION ( 'NONE',  ( 1.000000000000000000, 0.000000000000000000, 0.000000000000000000 ) ) ;
#239 = CARTESIAN_POINT ( 'NONE',  ( 5.000000000000000000, 6.123233995736766282E-16, 0.000000000000000000 ) ) ;
#240 = DIRECTION ( 'NONE',  ( -1.000000000000000000, 0.000000000000000000, 0.000000000000000000 ) ) ;
#241 = VECTOR ( 'NONE', #144, 1000.000000000000000 ) ;
#242 = CC_DESIGN_PERSON_AND_ORGANIZATION_ASSIGNMENT ( #140, #161, ( #39 ) ) ;
#243 = CARTESIAN_POINT ( 'NONE',  ( 0.000000000000000000, 0.000000000000000000, 250.0000000000000000 ) ) ;
#244 = DIRECTION ( 'NONE',  ( 0.000000000000000000, 0.000000000000000000, 1.000000000000000000 ) ) ;
#245 = ORIENTED_EDGE ( 'NONE', *, *, #55, .T. ) ;
#246 = PERSON_AND_ORGANIZATION ( #5, #9 ) ;
#247 = EDGE_CURVE ( 'NONE', #4, #66, #108, .T. ) ;
#248 = DIRECTION ( 'NONE',  ( 0.000000000000000000, 0.000000000000000000, 1.000000000000000000 ) ) ;
#249 =( NAMED_UNIT ( * ) SI_UNIT ( $, .STERADIAN. ) SOLID_ANGLE_UNIT ( ) );
#250 = LINE ( 'NONE', #176, #214 ) ;
#251 = LOCAL_TIME ( 17, 17, 50.00000000000000000, #62 ) ;
#252 = CALENDAR_DATE ( 2023, 13, 2 ) ;
#253 = DIRECTION ( 'NONE',  ( 1.000000000000000000, 0.000000000000000000, 0.000000000000000000 ) ) ;
#254 = CIRCLE ( 'NONE', #229, 5.000000000000000000 ) ;
#255 = DIRECTION ( 'NONE',  ( 1.000000000000000000, 0.000000000000000000, 0.000000000000000000 ) ) ;
ENDSEC;
END-ISO-10303-21;
