ISO-10303-21;
HEADER;
FILE_DESCRIPTION (( 'STEP AP203' ),
    '1' );
FILE_NAME ('f0d7.STEP',
    '2023-02-13T11:31:35',
    ( '' ),
    ( '' ),
    'SwSTEP 2.0',
    'SolidWorks 2019',
    '' );
FILE_SCHEMA (( 'CONFIG_CONTROL_DESIGN' ));
ENDSEC;

DATA;
#1 = APPROVAL_ROLE ( '' ) ;
#2 = CARTESIAN_POINT ( 'NONE',  ( 6.000000000000000888, 7.347880794884120722E-16, 400.0000000000000000 ) ) ;
#3 = LINE ( 'NONE', #130, #87 ) ;
#4 = DIRECTION ( 'NONE',  ( 1.000000000000000000, 0.000000000000000000, -0.000000000000000000 ) ) ;
#5 = DIRECTION ( 'NONE',  ( 0.000000000000000000, 0.000000000000000000, 1.000000000000000000 ) ) ;
#6 = PLANE ( 'NONE',  #227 ) ;
#7 = ADVANCED_FACE ( 'NONE', ( #45, #47 ), #64, .T. ) ;
#8 = FACE_OUTER_BOUND ( 'NONE', #206, .T. ) ;
#9 = FACE_OUTER_BOUND ( 'NONE', #236, .T. ) ;
#10 = CYLINDRICAL_SURFACE ( 'NONE', #38, 9.000000000000000000 ) ;
#11 = APPLICATION_PROTOCOL_DEFINITION ( 'international standard', 'config_control_design', 1994, #165 ) ;
#12 = AXIS2_PLACEMENT_3D ( 'NONE', #143, #183, #4 ) ;
#13 = CC_DESIGN_PERSON_AND_ORGANIZATION_ASSIGNMENT ( #205, #22, ( #129 ) ) ;
#14 = PERSON_AND_ORGANIZATION ( #224, #59 ) ;
#15 = CC_DESIGN_SECURITY_CLASSIFICATION ( #93, ( #129 ) ) ;
#16 = ORIENTED_EDGE ( 'NONE', *, *, #28, .T. ) ;
#17 = PERSON_AND_ORGANIZATION ( #224, #59 ) ;
#18 = ORIENTED_EDGE ( 'NONE', *, *, #163, .F. ) ;
#19 = DIRECTION ( 'NONE',  ( 1.000000000000000000, 0.000000000000000000, 0.000000000000000000 ) ) ;
#20 = COORDINATED_UNIVERSAL_TIME_OFFSET ( 1, 0, .AHEAD. ) ;
#21 = ORIENTED_EDGE ( 'NONE', *, *, #221, .T. ) ;
#22 = PERSON_AND_ORGANIZATION_ROLE ( 'design_supplier' ) ;
#23 = CIRCLE ( 'NONE', #199, 6.000000000000000888 ) ;
#24 = ORIENTED_EDGE ( 'NONE', *, *, #163, .T. ) ;
#25 = DIRECTION ( 'NONE',  ( 0.000000000000000000, 0.000000000000000000, 1.000000000000000000 ) ) ;
#26 = AXIS2_PLACEMENT_3D ( 'NONE', #29, #180, #212 ) ;
#27 = LINE ( 'NONE', #112, #230 ) ;
#28 = EDGE_CURVE ( 'NONE', #49, #244, #3, .T. ) ;
#29 = CARTESIAN_POINT ( 'NONE',  ( 0.000000000000000000, 0.000000000000000000, 400.0000000000000000 ) ) ;
#30 = COORDINATED_UNIVERSAL_TIME_OFFSET ( 1, 0, .AHEAD. ) ;
#31 = AXIS2_PLACEMENT_3D ( 'NONE', #127, #145, #188 ) ;
#32 = ORIENTED_EDGE ( 'NONE', *, *, #69, .F. ) ;
#33 = PRODUCT_DEFINITION_SHAPE ( 'NONE', 'NONE',  #216 ) ;
#34 = CARTESIAN_POINT ( 'NONE',  ( -6.000000000000000888, 0.000000000000000000, 400.0000000000000000 ) ) ;
#35 = EDGE_CURVE ( 'NONE', #197, #137, #23, .T. ) ;
#36 = ORIENTED_EDGE ( 'NONE', *, *, #80, .T. ) ;
#37 =( LENGTH_UNIT ( ) NAMED_UNIT ( * ) SI_UNIT ( .MILLI., .METRE. ) );
#38 = AXIS2_PLACEMENT_3D ( 'NONE', #90, #152, #91 ) ;
#39 = SECURITY_CLASSIFICATION_LEVEL ( 'unclassified' ) ;
#40 = ORIENTED_EDGE ( 'NONE', *, *, #168, .T. ) ;
#41 = CALENDAR_DATE ( 2023, 13, 2 ) ;
#42 = EDGE_LOOP ( 'NONE', ( #215, #40 ) ) ;
#43 = EDGE_CURVE ( 'NONE', #228, #190, #27, .T. ) ;
#44 = ORIENTED_EDGE ( 'NONE', *, *, #95, .T. ) ;
#45 = FACE_BOUND ( 'NONE', #99, .T. ) ;
#46 = DESIGN_CONTEXT ( 'detailed design', #142, 'design' ) ;
#47 = FACE_OUTER_BOUND ( 'NONE', #42, .T. ) ;
#48 = CALENDAR_DATE ( 2023, 13, 2 ) ;
#49 = VERTEX_POINT ( 'NONE', #167 ) ;
#50 = ADVANCED_FACE ( 'NONE', ( #65 ), #6, .T. ) ;
#51 = EDGE_LOOP ( 'NONE', ( #92, #76, #24, #139 ) ) ;
#52 = CC_DESIGN_PERSON_AND_ORGANIZATION_ASSIGNMENT ( #103, #175, ( #93 ) ) ;
#53 = VECTOR ( 'NONE', #166, 1000.000000000000000 ) ;
#54 = DATE_AND_TIME ( #98, #170 ) ;
#55 = APPROVAL_DATE_TIME ( #252, #100 ) ;
#56 = PERSON_AND_ORGANIZATION_ROLE ( 'design_owner' ) ;
#57 =( NAMED_UNIT ( * ) SI_UNIT ( $, .STERADIAN. ) SOLID_ANGLE_UNIT ( ) );
#58 = AXIS2_PLACEMENT_3D ( 'NONE', #169, #246, #68 ) ;
#59 = ORGANIZATION ( 'NEURÈENÝ', 'NEURÈENÝ', '' ) ;
#60 = MECHANICAL_CONTEXT ( 'NONE', #165, 'mechanical' ) ;
#61 = ADVANCED_FACE ( 'NONE', ( #242 ), #164, .T. ) ;
#62 = DIRECTION ( 'NONE',  ( 1.000000000000000000, 0.000000000000000000, 0.000000000000000000 ) ) ;
#63 = PLANE ( 'NONE',  #12 ) ;
#64 = PLANE ( 'NONE',  #31 ) ;
#65 = FACE_OUTER_BOUND ( 'NONE', #118, .T. ) ;
#66 = LINE ( 'NONE', #2, #149 ) ;
#67 = CC_DESIGN_PERSON_AND_ORGANIZATION_ASSIGNMENT ( #121, #157, ( #129 ) ) ;
#68 = DIRECTION ( 'NONE',  ( -1.000000000000000000, 0.000000000000000000, 0.000000000000000000 ) ) ;
#69 = EDGE_CURVE ( 'NONE', #137, #204, #66, .T. ) ;
#70 = DIRECTION ( 'NONE',  ( 0.000000000000000000, 0.000000000000000000, 1.000000000000000000 ) ) ;
#71 = CIRCLE ( 'NONE', #174, 9.000000000000000000 ) ;
#72 = AXIS2_PLACEMENT_3D ( 'NONE', #181, #201, #19 ) ;
#73 = APPROVAL_STATUS ( 'not_yet_approved' ) ;
#74 = COORDINATED_UNIVERSAL_TIME_OFFSET ( 1, 0, .AHEAD. ) ;
#75 = DATE_AND_TIME ( #161, #207 ) ;
#76 = ORIENTED_EDGE ( 'NONE', *, *, #69, .T. ) ;
#77 = APPROVAL_ROLE ( '' ) ;
#78 = CARTESIAN_POINT ( 'NONE',  ( 0.000000000000000000, 0.000000000000000000, 6.500000000000000000 ) ) ;
#79 = APPROVAL_PERSON_ORGANIZATION ( #14, #173, #237 ) ;
#80 = EDGE_CURVE ( 'NONE', #244, #190, #192, .T. ) ;
#81 = ADVANCED_BREP_SHAPE_REPRESENTATION ( 'f0d7', ( #191, #72 ), #193 ) ;
#82 = DIRECTION ( 'NONE',  ( -0.000000000000000000, -0.000000000000000000, -1.000000000000000000 ) ) ;
#83 = CC_DESIGN_APPROVAL ( #173, ( #93 ) ) ;
#84 = DIRECTION ( 'NONE',  ( -0.000000000000000000, -0.000000000000000000, -1.000000000000000000 ) ) ;
#85 = CARTESIAN_POINT ( 'NONE',  ( 0.000000000000000000, 0.000000000000000000, 400.0000000000000000 ) ) ;
#86 = DIRECTION ( 'NONE',  ( -0.000000000000000000, -0.000000000000000000, -1.000000000000000000 ) ) ;
#87 = VECTOR ( 'NONE', #86, 1000.000000000000000 ) ;
#88 = CYLINDRICAL_SURFACE ( 'NONE', #58, 6.000000000000000888 ) ;
#89 = ADVANCED_FACE ( 'NONE', ( #9 ), #10, .T. ) ;
#90 = CARTESIAN_POINT ( 'NONE',  ( 0.000000000000000000, 0.000000000000000000, 6.500000000000000000 ) ) ;
#91 = DIRECTION ( 'NONE',  ( -1.000000000000000000, 0.000000000000000000, 0.000000000000000000 ) ) ;
#92 = ORIENTED_EDGE ( 'NONE', *, *, #238, .F. ) ;
#93 = SECURITY_CLASSIFICATION ( '', '', #39 ) ;
#94 = ORIENTED_EDGE ( 'NONE', *, *, #35, .T. ) ;
#95 = EDGE_CURVE ( 'NONE', #190, #244, #101, .T. ) ;
#96 =( NAMED_UNIT ( * ) PLANE_ANGLE_UNIT ( ) SI_UNIT ( $, .RADIAN. ) );
#97 = PERSON_AND_ORGANIZATION_ROLE ( 'creator' ) ;
#98 = CALENDAR_DATE ( 2023, 13, 2 ) ;
#99 = EDGE_LOOP ( 'NONE', ( #104, #18 ) ) ;
#100 = APPROVAL ( #117, 'NEURÈENÝ' ) ;
#101 = CIRCLE ( 'NONE', #223, 9.000000000000000000 ) ;
#102 = LOCAL_TIME ( 12, 31, 35.00000000000000000, #74 ) ;
#103 = PERSON_AND_ORGANIZATION ( #224, #59 ) ;
#104 = ORIENTED_EDGE ( 'NONE', *, *, #221, .F. ) ;
#105 = CARTESIAN_POINT ( 'NONE',  ( 0.000000000000000000, 0.000000000000000000, 6.500000000000000000 ) ) ;
#106 = ORIENTED_EDGE ( 'NONE', *, *, #35, .F. ) ;
#107 = DIRECTION ( 'NONE',  ( 0.000000000000000000, 0.000000000000000000, 1.000000000000000000 ) ) ;
#108 = CARTESIAN_POINT ( 'NONE',  ( 6.000000000000000888, 7.347880794884120722E-16, 400.0000000000000000 ) ) ;
#109 = CALENDAR_DATE ( 2023, 13, 2 ) ;
#110 = ORIENTED_EDGE ( 'NONE', *, *, #43, .F. ) ;
#111 = APPROVAL_DATE_TIME ( #184, #173 ) ;
#112 = CARTESIAN_POINT ( 'NONE',  ( -9.000000000000000000, 0.000000000000000000, 6.500000000000000000 ) ) ;
#113 = DATE_AND_TIME ( #48, #187 ) ;
#114 = ORIENTED_EDGE ( 'NONE', *, *, #168, .F. ) ;
#115 = DATE_TIME_ROLE ( 'classification_date' ) ;
#116 = CC_DESIGN_DATE_AND_TIME_ASSIGNMENT ( #54, #115, ( #93 ) ) ;
#117 = APPROVAL_STATUS ( 'not_yet_approved' ) ;
#118 = EDGE_LOOP ( 'NONE', ( #94, #158 ) ) ;
#119 = LOCAL_TIME ( 12, 31, 35.00000000000000000, #176 ) ;
#120 = APPROVAL ( #73, 'NEURÈENÝ' ) ;
#121 = PERSON_AND_ORGANIZATION ( #224, #59 ) ;
#122 = DIRECTION ( 'NONE',  ( 0.000000000000000000, 0.000000000000000000, 1.000000000000000000 ) ) ;
#123 = CIRCLE ( 'NONE', #159, 6.000000000000000888 ) ;
#124 = AXIS2_PLACEMENT_3D ( 'NONE', #209, #107, #220 ) ;
#125 = CARTESIAN_POINT ( 'NONE',  ( 9.000000000000000000, 1.102182119232617517E-15, 0.000000000000000000 ) ) ;
#126 = DIRECTION ( 'NONE',  ( 1.000000000000000000, 0.000000000000000000, 0.000000000000000000 ) ) ;
#127 = CARTESIAN_POINT ( 'NONE',  ( 0.000000000000000000, 0.000000000000000000, 6.500000000000000000 ) ) ;
#128 = AXIS2_PLACEMENT_3D ( 'NONE', #249, #156, #178 ) ;
#129 = PRODUCT_DEFINITION_FORMATION_WITH_SPECIFIED_SOURCE ( 'LIBOVOLNÝ', '', #160, .NOT_KNOWN. ) ;
#130 = CARTESIAN_POINT ( 'NONE',  ( 9.000000000000000000, 1.102182119232617517E-15, 6.500000000000000000 ) ) ;
#131 = PRODUCT_RELATED_PRODUCT_CATEGORY ( 'detail', '', ( #160 ) ) ;
#132 = APPROVAL_PERSON_ORGANIZATION ( #177, #120, #77 ) ;
#133 = ORIENTED_EDGE ( 'NONE', *, *, #80, .F. ) ;
#134 = UNCERTAINTY_MEASURE_WITH_UNIT (LENGTH_MEASURE( 1.000000000000000082E-05 ), #37, 'distance_accuracy_value', 'NONE');
#135 = ORIENTED_EDGE ( 'NONE', *, *, #43, .T. ) ;
#136 = ADVANCED_FACE ( 'NONE', ( #8 ), #88, .T. ) ;
#137 = VERTEX_POINT ( 'NONE', #108 ) ;
#138 = PERSON_AND_ORGANIZATION ( #224, #59 ) ;
#139 = ORIENTED_EDGE ( 'NONE', *, *, #182, .F. ) ;
#140 = CARTESIAN_POINT ( 'NONE',  ( 6.000000000000000888, 7.347880794884120722E-16, 6.500000000000000000 ) ) ;
#141 = PERSON_AND_ORGANIZATION ( #224, #59 ) ;
#142 = APPLICATION_CONTEXT ( 'configuration controlled 3d designs of mechanical parts and assemblies' ) ;
#143 = CARTESIAN_POINT ( 'NONE',  ( 0.000000000000000000, 0.000000000000000000, 0.000000000000000000 ) ) ;
#144 = CC_DESIGN_APPROVAL ( #100, ( #129 ) ) ;
#145 = DIRECTION ( 'NONE',  ( 0.000000000000000000, 0.000000000000000000, 1.000000000000000000 ) ) ;
#146 = ADVANCED_FACE ( 'NONE', ( #147 ), #63, .F. ) ;
#147 = FACE_OUTER_BOUND ( 'NONE', #250, .T. ) ;
#148 = ORIENTED_EDGE ( 'NONE', *, *, #95, .F. ) ;
#149 = VECTOR ( 'NONE', #82, 1000.000000000000000 ) ;
#150 = CC_DESIGN_DATE_AND_TIME_ASSIGNMENT ( #75, #203, ( #216 ) ) ;
#151 = DIRECTION ( 'NONE',  ( 0.000000000000000000, 0.000000000000000000, 1.000000000000000000 ) ) ;
#152 = DIRECTION ( 'NONE',  ( -0.000000000000000000, -0.000000000000000000, -1.000000000000000000 ) ) ;
#153 = CARTESIAN_POINT ( 'NONE',  ( 0.000000000000000000, 0.000000000000000000, 6.500000000000000000 ) ) ;
#154 = DIRECTION ( 'NONE',  ( 1.000000000000000000, 0.000000000000000000, 0.000000000000000000 ) ) ;
#155 = CYLINDRICAL_SURFACE ( 'NONE', #162, 9.000000000000000000 ) ;
#156 = DIRECTION ( 'NONE',  ( 0.000000000000000000, 0.000000000000000000, 1.000000000000000000 ) ) ;
#157 = PERSON_AND_ORGANIZATION_ROLE ( 'creator' ) ;
#158 = ORIENTED_EDGE ( 'NONE', *, *, #238, .T. ) ;
#159 = AXIS2_PLACEMENT_3D ( 'NONE', #208, #179, #62 ) ;
#160 = PRODUCT ( 'f0d7', 'f0d7', '', ( #60 ) ) ;
#161 = CALENDAR_DATE ( 2023, 13, 2 ) ;
#162 = AXIS2_PLACEMENT_3D ( 'NONE', #153, #233, #229 ) ;
#163 = EDGE_CURVE ( 'NONE', #204, #194, #185, .T. ) ;
#164 = CYLINDRICAL_SURFACE ( 'NONE', #26, 6.000000000000000888 ) ;
#165 = APPLICATION_CONTEXT ( 'configuration controlled 3d designs of mechanical parts and assemblies' ) ;
#166 = DIRECTION ( 'NONE',  ( -0.000000000000000000, -0.000000000000000000, -1.000000000000000000 ) ) ;
#167 = CARTESIAN_POINT ( 'NONE',  ( 9.000000000000000000, 1.102182119232617517E-15, 6.500000000000000000 ) ) ;
#168 = EDGE_CURVE ( 'NONE', #49, #228, #71, .T. ) ;
#169 = CARTESIAN_POINT ( 'NONE',  ( 0.000000000000000000, 0.000000000000000000, 400.0000000000000000 ) ) ;
#170 = LOCAL_TIME ( 12, 31, 35.00000000000000000, #20 ) ;
#171 = DIRECTION ( 'NONE',  ( 1.000000000000000000, 0.000000000000000000, 0.000000000000000000 ) ) ;
#172 = CARTESIAN_POINT ( 'NONE',  ( 0.000000000000000000, 0.000000000000000000, 0.000000000000000000 ) ) ;
#173 = APPROVAL ( #251, 'NEURÈENÝ' ) ;
#174 = AXIS2_PLACEMENT_3D ( 'NONE', #78, #195, #245 ) ;
#175 = PERSON_AND_ORGANIZATION_ROLE ( 'classification_officer' ) ;
#176 = COORDINATED_UNIVERSAL_TIME_OFFSET ( 1, 0, .AHEAD. ) ;
#177 = PERSON_AND_ORGANIZATION ( #224, #59 ) ;
#178 = DIRECTION ( 'NONE',  ( 1.000000000000000000, 0.000000000000000000, 0.000000000000000000 ) ) ;
#179 = DIRECTION ( 'NONE',  ( 0.000000000000000000, 0.000000000000000000, 1.000000000000000000 ) ) ;
#180 = DIRECTION ( 'NONE',  ( -0.000000000000000000, -0.000000000000000000, -1.000000000000000000 ) ) ;
#181 = CARTESIAN_POINT ( 'NONE',  ( 0.000000000000000000, 0.000000000000000000, 0.000000000000000000 ) ) ;
#182 = EDGE_CURVE ( 'NONE', #197, #194, #211, .T. ) ;
#183 = DIRECTION ( 'NONE',  ( 0.000000000000000000, 0.000000000000000000, 1.000000000000000000 ) ) ;
#184 = DATE_AND_TIME ( #109, #102 ) ;
#185 = CIRCLE ( 'NONE', #128, 6.000000000000000888 ) ;
#186 = CARTESIAN_POINT ( 'NONE',  ( -6.000000000000000888, 0.000000000000000000, 400.0000000000000000 ) ) ;
#187 = LOCAL_TIME ( 12, 31, 35.00000000000000000, #30 ) ;
#188 = DIRECTION ( 'NONE',  ( 1.000000000000000000, 0.000000000000000000, -0.000000000000000000 ) ) ;
#189 = SHAPE_DEFINITION_REPRESENTATION ( #33, #81 ) ;
#190 = VERTEX_POINT ( 'NONE', #248 ) ;
#191 = MANIFOLD_SOLID_BREP ( 'Pøidat vysunutím3', #247 ) ;
#192 = CIRCLE ( 'NONE', #217, 9.000000000000000000 ) ;
#193 =( GEOMETRIC_REPRESENTATION_CONTEXT ( 3 ) GLOBAL_UNCERTAINTY_ASSIGNED_CONTEXT ( ( #134 ) ) GLOBAL_UNIT_ASSIGNED_CONTEXT ( ( #37, #96, #57 ) ) REPRESENTATION_CONTEXT ( 'NONE', 'WORKASPACE' ) );
#194 = VERTEX_POINT ( 'NONE', #202 ) ;
#195 = DIRECTION ( 'NONE',  ( 0.000000000000000000, 0.000000000000000000, 1.000000000000000000 ) ) ;
#196 = ADVANCED_FACE ( 'NONE', ( #198 ), #155, .T. ) ;
#197 = VERTEX_POINT ( 'NONE', #34 ) ;
#198 = FACE_OUTER_BOUND ( 'NONE', #239, .T. ) ;
#199 = AXIS2_PLACEMENT_3D ( 'NONE', #85, #5, #126 ) ;
#200 = CC_DESIGN_PERSON_AND_ORGANIZATION_ASSIGNMENT ( #17, #97, ( #216 ) ) ;
#201 = DIRECTION ( 'NONE',  ( 0.000000000000000000, 0.000000000000000000, 1.000000000000000000 ) ) ;
#202 = CARTESIAN_POINT ( 'NONE',  ( -6.000000000000000888, 0.000000000000000000, 6.500000000000000000 ) ) ;
#203 = DATE_TIME_ROLE ( 'creation_date' ) ;
#204 = VERTEX_POINT ( 'NONE', #140 ) ;
#205 = PERSON_AND_ORGANIZATION ( #224, #59 ) ;
#206 = EDGE_LOOP ( 'NONE', ( #32, #106, #214, #21 ) ) ;
#207 = LOCAL_TIME ( 12, 31, 35.00000000000000000, #219 ) ;
#208 = CARTESIAN_POINT ( 'NONE',  ( 0.000000000000000000, 0.000000000000000000, 400.0000000000000000 ) ) ;
#209 = CARTESIAN_POINT ( 'NONE',  ( 0.000000000000000000, 0.000000000000000000, 6.500000000000000000 ) ) ;
#210 = CARTESIAN_POINT ( 'NONE',  ( 0.000000000000000000, 0.000000000000000000, 0.000000000000000000 ) ) ;
#211 = LINE ( 'NONE', #186, #53 ) ;
#212 = DIRECTION ( 'NONE',  ( -1.000000000000000000, 0.000000000000000000, 0.000000000000000000 ) ) ;
#213 = DIRECTION ( 'NONE',  ( 1.000000000000000000, 0.000000000000000000, -0.000000000000000000 ) ) ;
#214 = ORIENTED_EDGE ( 'NONE', *, *, #182, .T. ) ;
#215 = ORIENTED_EDGE ( 'NONE', *, *, #253, .T. ) ;
#216 = PRODUCT_DEFINITION ( 'NEZNÁMÝ', '', #129, #46 ) ;
#217 = AXIS2_PLACEMENT_3D ( 'NONE', #210, #25, #171 ) ;
#218 = ORIENTED_EDGE ( 'NONE', *, *, #253, .F. ) ;
#219 = COORDINATED_UNIVERSAL_TIME_OFFSET ( 1, 0, .AHEAD. ) ;
#220 = DIRECTION ( 'NONE',  ( 1.000000000000000000, 0.000000000000000000, 0.000000000000000000 ) ) ;
#221 = EDGE_CURVE ( 'NONE', #194, #204, #234, .T. ) ;
#222 = APPLICATION_PROTOCOL_DEFINITION ( 'international standard', 'config_control_design', 1994, #142 ) ;
#223 = AXIS2_PLACEMENT_3D ( 'NONE', #172, #70, #154 ) ;
#224 = PERSON ( 'NEURÈENÝ', 'NEURÈENÝ', 'NEURÈENÝ', ('NEURÈENÝ'), ('NEURÈENÝ'), ('NEURÈENÝ') ) ;
#225 = APPROVAL_PERSON_ORGANIZATION ( #138, #100, #1 ) ;
#226 = CARTESIAN_POINT ( 'NONE',  ( 0.000000000000000000, 0.000000000000000000, 400.0000000000000000 ) ) ;
#227 = AXIS2_PLACEMENT_3D ( 'NONE', #226, #151, #213 ) ;
#228 = VERTEX_POINT ( 'NONE', #254 ) ;
#229 = DIRECTION ( 'NONE',  ( -1.000000000000000000, 0.000000000000000000, 0.000000000000000000 ) ) ;
#230 = VECTOR ( 'NONE', #84, 1000.000000000000000 ) ;
#231 = CC_DESIGN_APPROVAL ( #120, ( #216 ) ) ;
#232 = APPROVAL_DATE_TIME ( #113, #120 ) ;
#233 = DIRECTION ( 'NONE',  ( -0.000000000000000000, -0.000000000000000000, -1.000000000000000000 ) ) ;
#234 = CIRCLE ( 'NONE', #241, 6.000000000000000888 ) ;
#235 = CIRCLE ( 'NONE', #124, 9.000000000000000000 ) ;
#236 = EDGE_LOOP ( 'NONE', ( #255, #218, #135, #44 ) ) ;
#237 = APPROVAL_ROLE ( '' ) ;
#238 = EDGE_CURVE ( 'NONE', #137, #197, #123, .T. ) ;
#239 = EDGE_LOOP ( 'NONE', ( #114, #16, #36, #110 ) ) ;
#240 = DIRECTION ( 'NONE',  ( 1.000000000000000000, 0.000000000000000000, 0.000000000000000000 ) ) ;
#241 = AXIS2_PLACEMENT_3D ( 'NONE', #105, #122, #240 ) ;
#242 = FACE_OUTER_BOUND ( 'NONE', #51, .T. ) ;
#243 = CC_DESIGN_PERSON_AND_ORGANIZATION_ASSIGNMENT ( #141, #56, ( #160 ) ) ;
#244 = VERTEX_POINT ( 'NONE', #125 ) ;
#245 = DIRECTION ( 'NONE',  ( 1.000000000000000000, 0.000000000000000000, 0.000000000000000000 ) ) ;
#246 = DIRECTION ( 'NONE',  ( -0.000000000000000000, -0.000000000000000000, -1.000000000000000000 ) ) ;
#247 = CLOSED_SHELL ( 'NONE', ( #61, #196, #89, #7, #146, #136, #50 ) ) ;
#248 = CARTESIAN_POINT ( 'NONE',  ( -9.000000000000000000, 0.000000000000000000, 0.000000000000000000 ) ) ;
#249 = CARTESIAN_POINT ( 'NONE',  ( 0.000000000000000000, 0.000000000000000000, 6.500000000000000000 ) ) ;
#250 = EDGE_LOOP ( 'NONE', ( #148, #133 ) ) ;
#251 = APPROVAL_STATUS ( 'not_yet_approved' ) ;
#252 = DATE_AND_TIME ( #41, #119 ) ;
#253 = EDGE_CURVE ( 'NONE', #228, #49, #235, .T. ) ;
#254 = CARTESIAN_POINT ( 'NONE',  ( -9.000000000000000000, 0.000000000000000000, 6.500000000000000000 ) ) ;
#255 = ORIENTED_EDGE ( 'NONE', *, *, #28, .F. ) ;
ENDSEC;
END-ISO-10303-21;
