ISO-10303-21;
HEADER;
FILE_DESCRIPTION (( 'STEP AP203' ),
    '1' );
FILE_NAME ('5324.STEP',
    '2023-02-13T17:03:30',
    ( '' ),
    ( '' ),
    'SwSTEP 2.0',
    'SolidWorks 2019',
    '' );
FILE_SCHEMA (( 'CONFIG_CONTROL_DESIGN' ));
ENDSEC;

DATA;
#1 = LINE ( 'NONE', #199, #235 ) ;
#2 = CARTESIAN_POINT ( 'NONE',  ( 0.000000000000000000, 0.000000000000000000, 2.000000000000000000 ) ) ;
#3 = EDGE_CURVE ( 'NONE', #209, #236, #230, .T. ) ;
#4 = AXIS2_PLACEMENT_3D ( 'NONE', #196, #219, #121 ) ;
#5 = CARTESIAN_POINT ( 'NONE',  ( 0.000000000000000000, 0.000000000000000000, 2.000000000000000000 ) ) ;
#6 = ORIENTED_EDGE ( 'NONE', *, *, #134, .T. ) ;
#7 = CARTESIAN_POINT ( 'NONE',  ( 2.500000000000000000, 3.061616997868383141E-16, 2.000000000000000000 ) ) ;
#8 = CARTESIAN_POINT ( 'NONE',  ( -1.250000000000000000, 0.000000000000000000, 2.000000000000000000 ) ) ;
#9 = PERSON_AND_ORGANIZATION_ROLE ( 'design_owner' ) ;
#10 = DIRECTION ( 'NONE',  ( 0.000000000000000000, 0.000000000000000000, 1.000000000000000000 ) ) ;
#11 = LOCAL_TIME ( 18, 3, 30.00000000000000000, #106 ) ;
#12 = APPROVAL ( #211, 'NEURÈENÝ' ) ;
#13 = APPROVAL_STATUS ( 'not_yet_approved' ) ;
#14 = CALENDAR_DATE ( 2023, 13, 2 ) ;
#15 = DIRECTION ( 'NONE',  ( 1.000000000000000000, 0.000000000000000000, 0.000000000000000000 ) ) ;
#16 = DATE_AND_TIME ( #33, #11 ) ;
#17 = CARTESIAN_POINT ( 'NONE',  ( 2.500000000000000000, 3.061616997868383141E-16, 2.000000000000000000 ) ) ;
#18 = AXIS2_PLACEMENT_3D ( 'NONE', #67, #108, #144 ) ;
#19 = AXIS2_PLACEMENT_3D ( 'NONE', #245, #203, #29 ) ;
#20 = PRODUCT_DEFINITION ( 'NEZNÁMÝ', '', #192, #119 ) ;
#21 = CARTESIAN_POINT ( 'NONE',  ( -2.500000000000000000, 0.000000000000000000, 2.000000000000000000 ) ) ;
#22 = AXIS2_PLACEMENT_3D ( 'NONE', #126, #10, #84 ) ;
#23 = EDGE_LOOP ( 'NONE', ( #57, #202 ) ) ;
#24 = CYLINDRICAL_SURFACE ( 'NONE', #111, 1.250000000000000000 ) ;
#25 = DIRECTION ( 'NONE',  ( -0.000000000000000000, -0.000000000000000000, -1.000000000000000000 ) ) ;
#26 = CC_DESIGN_APPROVAL ( #165, ( #212 ) ) ;
#27 = CARTESIAN_POINT ( 'NONE',  ( 0.000000000000000000, 0.000000000000000000, 500.0000000000000000 ) ) ;
#28 = CARTESIAN_POINT ( 'NONE',  ( -2.500000000000000000, 0.000000000000000000, 0.000000000000000000 ) ) ;
#29 = DIRECTION ( 'NONE',  ( 1.000000000000000000, 0.000000000000000000, 0.000000000000000000 ) ) ;
#30 = CARTESIAN_POINT ( 'NONE',  ( 0.000000000000000000, 0.000000000000000000, 500.0000000000000000 ) ) ;
#31 = CLOSED_SHELL ( 'NONE', ( #73, #64, #54, #155, #194, #147, #138 ) ) ;
#32 = APPLICATION_PROTOCOL_DEFINITION ( 'international standard', 'config_control_design', 1994, #164 ) ;
#33 = CALENDAR_DATE ( 2023, 13, 2 ) ;
#34 = COORDINATED_UNIVERSAL_TIME_OFFSET ( 1, 0, .AHEAD. ) ;
#35 = EDGE_CURVE ( 'NONE', #209, #156, #191, .T. ) ;
#36 = AXIS2_PLACEMENT_3D ( 'NONE', #2, #61, #162 ) ;
#37 = ORIENTED_EDGE ( 'NONE', *, *, #120, .F. ) ;
#38 = DIRECTION ( 'NONE',  ( -0.000000000000000000, -0.000000000000000000, -1.000000000000000000 ) ) ;
#39 = PRODUCT_DEFINITION_SHAPE ( 'NONE', 'NONE',  #20 ) ;
#40 = CC_DESIGN_PERSON_AND_ORGANIZATION_ASSIGNMENT ( #208, #149, ( #192 ) ) ;
#41 = CARTESIAN_POINT ( 'NONE',  ( -1.250000000000000000, 0.000000000000000000, 500.0000000000000000 ) ) ;
#42 = DIRECTION ( 'NONE',  ( 1.000000000000000000, 0.000000000000000000, 0.000000000000000000 ) ) ;
#43 = CARTESIAN_POINT ( 'NONE',  ( 0.000000000000000000, 0.000000000000000000, 500.0000000000000000 ) ) ;
#44 = PERSON_AND_ORGANIZATION_ROLE ( 'design_supplier' ) ;
#45 = CC_DESIGN_DATE_AND_TIME_ASSIGNMENT ( #16, #244, ( #212 ) ) ;
#46 = DIRECTION ( 'NONE',  ( 0.000000000000000000, 0.000000000000000000, 1.000000000000000000 ) ) ;
#47 = APPROVAL_ROLE ( '' ) ;
#48 = ORIENTED_EDGE ( 'NONE', *, *, #177, .T. ) ;
#49 = DIRECTION ( 'NONE',  ( 0.000000000000000000, 0.000000000000000000, 1.000000000000000000 ) ) ;
#50 = APPROVAL_ROLE ( '' ) ;
#51 = PERSON_AND_ORGANIZATION ( #91, #90 ) ;
#52 = APPROVAL_DATE_TIME ( #107, #171 ) ;
#53 = APPROVAL_PERSON_ORGANIZATION ( #145, #171, #50 ) ;
#54 = ADVANCED_FACE ( 'NONE', ( #118 ), #176, .T. ) ;
#55 = EDGE_LOOP ( 'NONE', ( #80, #187, #48, #95 ) ) ;
#56 =( GEOMETRIC_REPRESENTATION_CONTEXT ( 3 ) GLOBAL_UNCERTAINTY_ASSIGNED_CONTEXT ( ( #250 ) ) GLOBAL_UNIT_ASSIGNED_CONTEXT ( ( #62, #123, #96 ) ) REPRESENTATION_CONTEXT ( 'NONE', 'WORKASPACE' ) );
#57 = ORIENTED_EDGE ( 'NONE', *, *, #247, .T. ) ;
#58 = APPROVAL_PERSON_ORGANIZATION ( #127, #165, #88 ) ;
#59 = VECTOR ( 'NONE', #25, 1000.000000000000000 ) ;
#60 = DIRECTION ( 'NONE',  ( -1.000000000000000000, 0.000000000000000000, 0.000000000000000000 ) ) ;
#61 = DIRECTION ( 'NONE',  ( 0.000000000000000000, 0.000000000000000000, 1.000000000000000000 ) ) ;
#62 =( LENGTH_UNIT ( ) NAMED_UNIT ( * ) SI_UNIT ( .MILLI., .METRE. ) );
#63 = DIRECTION ( 'NONE',  ( -1.000000000000000000, 0.000000000000000000, 0.000000000000000000 ) ) ;
#64 = ADVANCED_FACE ( 'NONE', ( #141 ), #98, .T. ) ;
#65 = APPROVAL_DATE_TIME ( #131, #12 ) ;
#66 = CC_DESIGN_APPROVAL ( #12, ( #192 ) ) ;
#67 = CARTESIAN_POINT ( 'NONE',  ( 0.000000000000000000, 0.000000000000000000, 0.000000000000000000 ) ) ;
#68 = CARTESIAN_POINT ( 'NONE',  ( 0.000000000000000000, 0.000000000000000000, 2.000000000000000000 ) ) ;
#69 = DATE_AND_TIME ( #246, #129 ) ;
#70 = MECHANICAL_CONTEXT ( 'NONE', #164, 'mechanical' ) ;
#71 = CIRCLE ( 'NONE', #214, 1.250000000000000000 ) ;
#72 = AXIS2_PLACEMENT_3D ( 'NONE', #43, #222, #188 ) ;
#73 = ADVANCED_FACE ( 'NONE', ( #220 ), #124, .T. ) ;
#74 = CIRCLE ( 'NONE', #4, 2.500000000000000000 ) ;
#75 = ORIENTED_EDGE ( 'NONE', *, *, #94, .T. ) ;
#76 = PLANE ( 'NONE',  #193 ) ;
#77 = LINE ( 'NONE', #239, #143 ) ;
#78 = CARTESIAN_POINT ( 'NONE',  ( 0.000000000000000000, 0.000000000000000000, 2.000000000000000000 ) ) ;
#79 = DIRECTION ( 'NONE',  ( -0.000000000000000000, -0.000000000000000000, -1.000000000000000000 ) ) ;
#80 = ORIENTED_EDGE ( 'NONE', *, *, #35, .F. ) ;
#81 = DIRECTION ( 'NONE',  ( -0.000000000000000000, -0.000000000000000000, -1.000000000000000000 ) ) ;
#82 = DIRECTION ( 'NONE',  ( 0.000000000000000000, 0.000000000000000000, 1.000000000000000000 ) ) ;
#83 = CARTESIAN_POINT ( 'NONE',  ( 0.000000000000000000, 0.000000000000000000, 2.000000000000000000 ) ) ;
#84 = DIRECTION ( 'NONE',  ( 1.000000000000000000, 0.000000000000000000, 0.000000000000000000 ) ) ;
#85 = CALENDAR_DATE ( 2023, 13, 2 ) ;
#86 = APPROVAL_PERSON_ORGANIZATION ( #132, #12, #47 ) ;
#87 = DIRECTION ( 'NONE',  ( 1.000000000000000000, 0.000000000000000000, 0.000000000000000000 ) ) ;
#88 = APPROVAL_ROLE ( '' ) ;
#89 = PERSON_AND_ORGANIZATION ( #91, #90 ) ;
#90 = ORGANIZATION ( 'NEURÈENÝ', 'NEURÈENÝ', '' ) ;
#91 = PERSON ( 'NEURÈENÝ', 'NEURÈENÝ', 'NEURÈENÝ', ('NEURÈENÝ'), ('NEURÈENÝ'), ('NEURÈENÝ') ) ;
#92 = CC_DESIGN_PERSON_AND_ORGANIZATION_ASSIGNMENT ( #167, #204, ( #212 ) ) ;
#93 = ORIENTED_EDGE ( 'NONE', *, *, #227, .F. ) ;
#94 = EDGE_CURVE ( 'NONE', #181, #128, #158, .T. ) ;
#95 = ORIENTED_EDGE ( 'NONE', *, *, #232, .T. ) ;
#96 =( NAMED_UNIT ( * ) SI_UNIT ( $, .STERADIAN. ) SOLID_ANGLE_UNIT ( ) );
#97 = DIRECTION ( 'NONE',  ( -1.000000000000000000, 0.000000000000000000, 0.000000000000000000 ) ) ;
#98 = CYLINDRICAL_SURFACE ( 'NONE', #207, 2.500000000000000000 ) ;
#99 = PRODUCT ( '5324', '5324', '', ( #70 ) ) ;
#100 = DIRECTION ( 'NONE',  ( 1.000000000000000000, 0.000000000000000000, 0.000000000000000000 ) ) ;
#101 = AXIS2_PLACEMENT_3D ( 'NONE', #78, #238, #60 ) ;
#102 = FACE_BOUND ( 'NONE', #104, .T. ) ;
#103 = CALENDAR_DATE ( 2023, 13, 2 ) ;
#104 = EDGE_LOOP ( 'NONE', ( #233, #37 ) ) ;
#105 = FACE_OUTER_BOUND ( 'NONE', #234, .T. ) ;
#106 = COORDINATED_UNIVERSAL_TIME_OFFSET ( 1, 0, .AHEAD. ) ;
#107 = DATE_AND_TIME ( #14, #197 ) ;
#108 = DIRECTION ( 'NONE',  ( 0.000000000000000000, 0.000000000000000000, 1.000000000000000000 ) ) ;
#109 = EDGE_CURVE ( 'NONE', #130, #174, #151, .T. ) ;
#110 = MANIFOLD_SOLID_BREP ( 'Pøidat vysunutím3', #31 ) ;
#111 = AXIS2_PLACEMENT_3D ( 'NONE', #142, #38, #97 ) ;
#112 = EDGE_LOOP ( 'NONE', ( #153, #139, #146, #93 ) ) ;
#113 = LINE ( 'NONE', #237, #122 ) ;
#114 = PRODUCT_RELATED_PRODUCT_CATEGORY ( 'detail', '', ( #99 ) ) ;
#115 = CIRCLE ( 'NONE', #22, 2.500000000000000000 ) ;
#116 = AXIS2_PLACEMENT_3D ( 'NONE', #148, #46, #184 ) ;
#117 = DIRECTION ( 'NONE',  ( 1.000000000000000000, 0.000000000000000000, -0.000000000000000000 ) ) ;
#118 = FACE_OUTER_BOUND ( 'NONE', #55, .T. ) ;
#119 = DESIGN_CONTEXT ( 'detailed design', #136, 'design' ) ;
#120 = EDGE_CURVE ( 'NONE', #174, #130, #133, .T. ) ;
#121 = DIRECTION ( 'NONE',  ( 1.000000000000000000, 0.000000000000000000, 0.000000000000000000 ) ) ;
#122 = VECTOR ( 'NONE', #140, 1000.000000000000000 ) ;
#123 =( NAMED_UNIT ( * ) PLANE_ANGLE_UNIT ( ) SI_UNIT ( $, .RADIAN. ) );
#124 = CYLINDRICAL_SURFACE ( 'NONE', #72, 1.250000000000000000 ) ;
#125 = SECURITY_CLASSIFICATION_LEVEL ( 'unclassified' ) ;
#126 = CARTESIAN_POINT ( 'NONE',  ( 0.000000000000000000, 0.000000000000000000, 0.000000000000000000 ) ) ;
#127 = PERSON_AND_ORGANIZATION ( #91, #90 ) ;
#128 = VERTEX_POINT ( 'NONE', #242 ) ;
#129 = LOCAL_TIME ( 18, 3, 30.00000000000000000, #169 ) ;
#130 = VERTEX_POINT ( 'NONE', #8 ) ;
#131 = DATE_AND_TIME ( #85, #175 ) ;
#132 = PERSON_AND_ORGANIZATION ( #91, #90 ) ;
#133 = CIRCLE ( 'NONE', #116, 1.250000000000000000 ) ;
#134 = EDGE_CURVE ( 'NONE', #156, #152, #115, .T. ) ;
#135 = EDGE_LOOP ( 'NONE', ( #213, #150, #6, #137 ) ) ;
#136 = APPLICATION_CONTEXT ( 'configuration controlled 3d designs of mechanical parts and assemblies' ) ;
#137 = ORIENTED_EDGE ( 'NONE', *, *, #177, .F. ) ;
#138 = ADVANCED_FACE ( 'NONE', ( #206 ), #225, .T. ) ;
#139 = ORIENTED_EDGE ( 'NONE', *, *, #254, .T. ) ;
#140 = DIRECTION ( 'NONE',  ( -0.000000000000000000, -0.000000000000000000, -1.000000000000000000 ) ) ;
#141 = FACE_OUTER_BOUND ( 'NONE', #135, .T. ) ;
#142 = CARTESIAN_POINT ( 'NONE',  ( 0.000000000000000000, 0.000000000000000000, 500.0000000000000000 ) ) ;
#143 = VECTOR ( 'NONE', #180, 1000.000000000000000 ) ;
#144 = DIRECTION ( 'NONE',  ( 1.000000000000000000, 0.000000000000000000, 0.000000000000000000 ) ) ;
#145 = PERSON_AND_ORGANIZATION ( #91, #90 ) ;
#146 = ORIENTED_EDGE ( 'NONE', *, *, #120, .T. ) ;
#147 = ADVANCED_FACE ( 'NONE', ( #105 ), #24, .T. ) ;
#148 = CARTESIAN_POINT ( 'NONE',  ( 0.000000000000000000, 0.000000000000000000, 2.000000000000000000 ) ) ;
#149 = PERSON_AND_ORGANIZATION_ROLE ( 'creator' ) ;
#150 = ORIENTED_EDGE ( 'NONE', *, *, #35, .T. ) ;
#151 = CIRCLE ( 'NONE', #243, 1.250000000000000000 ) ;
#152 = VERTEX_POINT ( 'NONE', #28 ) ;
#153 = ORIENTED_EDGE ( 'NONE', *, *, #248, .F. ) ;
#154 = LOCAL_TIME ( 18, 3, 30.00000000000000000, #221 ) ;
#155 = ADVANCED_FACE ( 'NONE', ( #102, #178 ), #157, .T. ) ;
#156 = VERTEX_POINT ( 'NONE', #160 ) ;
#157 = PLANE ( 'NONE',  #36 ) ;
#158 = CIRCLE ( 'NONE', #19, 1.250000000000000000 ) ;
#159 = ORIENTED_EDGE ( 'NONE', *, *, #134, .F. ) ;
#160 = CARTESIAN_POINT ( 'NONE',  ( 2.500000000000000000, 3.061616997868383141E-16, 0.000000000000000000 ) ) ;
#161 = DIRECTION ( 'NONE',  ( 1.000000000000000000, 0.000000000000000000, -0.000000000000000000 ) ) ;
#162 = DIRECTION ( 'NONE',  ( 1.000000000000000000, 0.000000000000000000, -0.000000000000000000 ) ) ;
#163 = DIRECTION ( 'NONE',  ( 0.000000000000000000, 0.000000000000000000, 1.000000000000000000 ) ) ;
#164 = APPLICATION_CONTEXT ( 'configuration controlled 3d designs of mechanical parts and assemblies' ) ;
#165 = APPROVAL ( #13, 'NEURÈENÝ' ) ;
#166 = CC_DESIGN_APPROVAL ( #171, ( #20 ) ) ;
#167 = PERSON_AND_ORGANIZATION ( #91, #90 ) ;
#168 = AXIS2_PLACEMENT_3D ( 'NONE', #30, #49, #161 ) ;
#169 = COORDINATED_UNIVERSAL_TIME_OFFSET ( 1, 0, .AHEAD. ) ;
#170 = PERSON_AND_ORGANIZATION ( #91, #90 ) ;
#171 = APPROVAL ( #189, 'NEURÈENÝ' ) ;
#172 = AXIS2_PLACEMENT_3D ( 'NONE', #216, #182, #15 ) ;
#173 = ORIENTED_EDGE ( 'NONE', *, *, #248, .T. ) ;
#174 = VERTEX_POINT ( 'NONE', #255 ) ;
#175 = LOCAL_TIME ( 18, 3, 30.00000000000000000, #34 ) ;
#176 = CYLINDRICAL_SURFACE ( 'NONE', #101, 2.500000000000000000 ) ;
#177 = EDGE_CURVE ( 'NONE', #236, #152, #1, .T. ) ;
#178 = FACE_OUTER_BOUND ( 'NONE', #23, .T. ) ;
#179 = CIRCLE ( 'NONE', #253, 2.500000000000000000 ) ;
#180 = DIRECTION ( 'NONE',  ( -0.000000000000000000, -0.000000000000000000, -1.000000000000000000 ) ) ;
#181 = VERTEX_POINT ( 'NONE', #41 ) ;
#182 = DIRECTION ( 'NONE',  ( 0.000000000000000000, 0.000000000000000000, 1.000000000000000000 ) ) ;
#183 = FACE_OUTER_BOUND ( 'NONE', #195, .T. ) ;
#184 = DIRECTION ( 'NONE',  ( 1.000000000000000000, 0.000000000000000000, 0.000000000000000000 ) ) ;
#185 = CC_DESIGN_PERSON_AND_ORGANIZATION_ASSIGNMENT ( #170, #44, ( #192 ) ) ;
#186 = DATE_AND_TIME ( #103, #154 ) ;
#187 = ORIENTED_EDGE ( 'NONE', *, *, #247, .F. ) ;
#188 = DIRECTION ( 'NONE',  ( -1.000000000000000000, 0.000000000000000000, 0.000000000000000000 ) ) ;
#189 = APPROVAL_STATUS ( 'not_yet_approved' ) ;
#190 = PERSON_AND_ORGANIZATION_ROLE ( 'creator' ) ;
#191 = LINE ( 'NONE', #17, #59 ) ;
#192 = PRODUCT_DEFINITION_FORMATION_WITH_SPECIFIED_SOURCE ( 'LIBOVOLNÝ', '', #99, .NOT_KNOWN. ) ;
#193 = AXIS2_PLACEMENT_3D ( 'NONE', #218, #82, #117 ) ;
#194 = ADVANCED_FACE ( 'NONE', ( #183 ), #76, .F. ) ;
#195 = EDGE_LOOP ( 'NONE', ( #215, #159 ) ) ;
#196 = CARTESIAN_POINT ( 'NONE',  ( 0.000000000000000000, 0.000000000000000000, 0.000000000000000000 ) ) ;
#197 = LOCAL_TIME ( 18, 3, 30.00000000000000000, #228 ) ;
#198 = ORIENTED_EDGE ( 'NONE', *, *, #227, .T. ) ;
#199 = CARTESIAN_POINT ( 'NONE',  ( -2.500000000000000000, 0.000000000000000000, 2.000000000000000000 ) ) ;
#200 = CC_DESIGN_PERSON_AND_ORGANIZATION_ASSIGNMENT ( #89, #9, ( #99 ) ) ;
#201 = DIRECTION ( 'NONE',  ( 0.000000000000000000, 0.000000000000000000, 1.000000000000000000 ) ) ;
#202 = ORIENTED_EDGE ( 'NONE', *, *, #3, .T. ) ;
#203 = DIRECTION ( 'NONE',  ( 0.000000000000000000, 0.000000000000000000, 1.000000000000000000 ) ) ;
#204 = PERSON_AND_ORGANIZATION_ROLE ( 'classification_officer' ) ;
#205 = EDGE_LOOP ( 'NONE', ( #75, #173 ) ) ;
#206 = FACE_OUTER_BOUND ( 'NONE', #205, .T. ) ;
#207 = AXIS2_PLACEMENT_3D ( 'NONE', #5, #81, #63 ) ;
#208 = PERSON_AND_ORGANIZATION ( #91, #90 ) ;
#209 = VERTEX_POINT ( 'NONE', #7 ) ;
#210 = DATE_TIME_ROLE ( 'creation_date' ) ;
#211 = APPROVAL_STATUS ( 'not_yet_approved' ) ;
#212 = SECURITY_CLASSIFICATION ( '', '', #125 ) ;
#213 = ORIENTED_EDGE ( 'NONE', *, *, #3, .F. ) ;
#214 = AXIS2_PLACEMENT_3D ( 'NONE', #27, #241, #100 ) ;
#215 = ORIENTED_EDGE ( 'NONE', *, *, #232, .F. ) ;
#216 = CARTESIAN_POINT ( 'NONE',  ( 0.000000000000000000, 0.000000000000000000, 2.000000000000000000 ) ) ;
#217 = CC_DESIGN_DATE_AND_TIME_ASSIGNMENT ( #186, #210, ( #20 ) ) ;
#218 = CARTESIAN_POINT ( 'NONE',  ( 0.000000000000000000, 0.000000000000000000, 0.000000000000000000 ) ) ;
#219 = DIRECTION ( 'NONE',  ( 0.000000000000000000, 0.000000000000000000, 1.000000000000000000 ) ) ;
#220 = FACE_OUTER_BOUND ( 'NONE', #112, .T. ) ;
#221 = COORDINATED_UNIVERSAL_TIME_OFFSET ( 1, 0, .AHEAD. ) ;
#222 = DIRECTION ( 'NONE',  ( -0.000000000000000000, -0.000000000000000000, -1.000000000000000000 ) ) ;
#223 = APPLICATION_PROTOCOL_DEFINITION ( 'international standard', 'config_control_design', 1994, #136 ) ;
#224 = ORIENTED_EDGE ( 'NONE', *, *, #94, .F. ) ;
#225 = PLANE ( 'NONE',  #168 ) ;
#226 = APPROVAL_DATE_TIME ( #69, #165 ) ;
#227 = EDGE_CURVE ( 'NONE', #181, #130, #113, .T. ) ;
#228 = COORDINATED_UNIVERSAL_TIME_OFFSET ( 1, 0, .AHEAD. ) ;
#229 = CC_DESIGN_PERSON_AND_ORGANIZATION_ASSIGNMENT ( #51, #190, ( #20 ) ) ;
#230 = CIRCLE ( 'NONE', #172, 2.500000000000000000 ) ;
#231 = SHAPE_DEFINITION_REPRESENTATION ( #39, #251 ) ;
#232 = EDGE_CURVE ( 'NONE', #152, #156, #74, .T. ) ;
#233 = ORIENTED_EDGE ( 'NONE', *, *, #109, .F. ) ;
#234 = EDGE_LOOP ( 'NONE', ( #249, #224, #198, #252 ) ) ;
#235 = VECTOR ( 'NONE', #79, 1000.000000000000000 ) ;
#236 = VERTEX_POINT ( 'NONE', #21 ) ;
#237 = CARTESIAN_POINT ( 'NONE',  ( -1.250000000000000000, 0.000000000000000000, 500.0000000000000000 ) ) ;
#238 = DIRECTION ( 'NONE',  ( -0.000000000000000000, -0.000000000000000000, -1.000000000000000000 ) ) ;
#239 = CARTESIAN_POINT ( 'NONE',  ( 1.250000000000000000, 1.530808498934191571E-16, 500.0000000000000000 ) ) ;
#240 = CC_DESIGN_SECURITY_CLASSIFICATION ( #212, ( #192 ) ) ;
#241 = DIRECTION ( 'NONE',  ( 0.000000000000000000, 0.000000000000000000, 1.000000000000000000 ) ) ;
#242 = CARTESIAN_POINT ( 'NONE',  ( 1.250000000000000000, 1.530808498934191571E-16, 500.0000000000000000 ) ) ;
#243 = AXIS2_PLACEMENT_3D ( 'NONE', #68, #163, #87 ) ;
#244 = DATE_TIME_ROLE ( 'classification_date' ) ;
#245 = CARTESIAN_POINT ( 'NONE',  ( 0.000000000000000000, 0.000000000000000000, 500.0000000000000000 ) ) ;
#246 = CALENDAR_DATE ( 2023, 13, 2 ) ;
#247 = EDGE_CURVE ( 'NONE', #236, #209, #179, .T. ) ;
#248 = EDGE_CURVE ( 'NONE', #128, #181, #71, .T. ) ;
#249 = ORIENTED_EDGE ( 'NONE', *, *, #254, .F. ) ;
#250 = UNCERTAINTY_MEASURE_WITH_UNIT (LENGTH_MEASURE( 1.000000000000000082E-05 ), #62, 'distance_accuracy_value', 'NONE');
#251 = ADVANCED_BREP_SHAPE_REPRESENTATION ( '5324', ( #110, #18 ), #56 ) ;
#252 = ORIENTED_EDGE ( 'NONE', *, *, #109, .T. ) ;
#253 = AXIS2_PLACEMENT_3D ( 'NONE', #83, #201, #42 ) ;
#254 = EDGE_CURVE ( 'NONE', #128, #174, #77, .T. ) ;
#255 = CARTESIAN_POINT ( 'NONE',  ( 1.250000000000000000, 1.530808498934191571E-16, 2.000000000000000000 ) ) ;
ENDSEC;
END-ISO-10303-21;
