ISO-10303-21;
HEADER;
FILE_DESCRIPTION (( 'STEP AP203' ),
    '1' );
FILE_NAME ('b1ed.STEP',
    '2023-02-13T17:14:37',
    ( '' ),
    ( '' ),
    'SwSTEP 2.0',
    'SolidWorks 2019',
    '' );
FILE_SCHEMA (( 'CONFIG_CONTROL_DESIGN' ));
ENDSEC;

DATA;
#1 = CARTESIAN_POINT ( 'NONE',  ( 0.000000000000000000, 0.000000000000000000, 0.000000000000000000 ) ) ;
#2 = VECTOR ( 'NONE', #150, 1000.000000000000000 ) ;
#3 = DIRECTION ( 'NONE',  ( -0.000000000000000000, -0.000000000000000000, -1.000000000000000000 ) ) ;
#4 = EDGE_CURVE ( 'NONE', #158, #210, #81, .T. ) ;
#5 = LINE ( 'NONE', #219, #177 ) ;
#6 = FACE_OUTER_BOUND ( 'NONE', #129, .T. ) ;
#7 = APPLICATION_CONTEXT ( 'configuration controlled 3d designs of mechanical parts and assemblies' ) ;
#8 = ADVANCED_FACE ( 'NONE', ( #186, #203 ), #39, .T. ) ;
#9 = ADVANCED_FACE ( 'NONE', ( #57 ), #38, .T. ) ;
#10 = AXIS2_PLACEMENT_3D ( 'NONE', #120, #64, #24 ) ;
#11 = EDGE_CURVE ( 'NONE', #222, #158, #206, .T. ) ;
#12 = DIRECTION ( 'NONE',  ( 0.000000000000000000, 0.000000000000000000, 1.000000000000000000 ) ) ;
#13 = CARTESIAN_POINT ( 'NONE',  ( 0.000000000000000000, 0.000000000000000000, 0.000000000000000000 ) ) ;
#14 = COORDINATED_UNIVERSAL_TIME_OFFSET ( 1, 0, .AHEAD. ) ;
#15 = ORIENTED_EDGE ( 'NONE', *, *, #18, .F. ) ;
#16 = PERSON_AND_ORGANIZATION_ROLE ( 'design_supplier' ) ;
#17 = DIRECTION ( 'NONE',  ( -0.000000000000000000, -0.000000000000000000, -1.000000000000000000 ) ) ;
#18 = EDGE_CURVE ( 'NONE', #163, #210, #185, .T. ) ;
#19 = PLANE ( 'NONE',  #138 ) ;
#20 = APPROVAL ( #248, 'NEURÈENÝ' ) ;
#21 = AXIS2_PLACEMENT_3D ( 'NONE', #1, #99, #235 ) ;
#22 = DIRECTION ( 'NONE',  ( 0.000000000000000000, 0.000000000000000000, 1.000000000000000000 ) ) ;
#23 = DIRECTION ( 'NONE',  ( 0.000000000000000000, 0.000000000000000000, 1.000000000000000000 ) ) ;
#24 = DIRECTION ( 'NONE',  ( -1.000000000000000000, 0.000000000000000000, 0.000000000000000000 ) ) ;
#25 = CARTESIAN_POINT ( 'NONE',  ( 1.000000000000000000, 1.224646799147353207E-16, 2.000000000000000000 ) ) ;
#26 = VECTOR ( 'NONE', #17, 1000.000000000000000 ) ;
#27 = AXIS2_PLACEMENT_3D ( 'NONE', #134, #215, #61 ) ;
#28 = PRODUCT ( 'b1ed', 'b1ed', '', ( #126 ) ) ;
#29 = SHAPE_DEFINITION_REPRESENTATION ( #156, #243 ) ;
#30 = EDGE_LOOP ( 'NONE', ( #107, #228 ) ) ;
#31 = CARTESIAN_POINT ( 'NONE',  ( 0.000000000000000000, 0.000000000000000000, 2.000000000000000000 ) ) ;
#32 = COORDINATED_UNIVERSAL_TIME_OFFSET ( 1, 0, .AHEAD. ) ;
#33 = DIRECTION ( 'NONE',  ( 0.000000000000000000, 0.000000000000000000, 1.000000000000000000 ) ) ;
#34 = PERSON_AND_ORGANIZATION ( #162, #124 ) ;
#35 = CIRCLE ( 'NONE', #48, 1.000000000000000000 ) ;
#36 = FACE_OUTER_BOUND ( 'NONE', #30, .T. ) ;
#37 = PERSON_AND_ORGANIZATION ( #162, #124 ) ;
#38 = PLANE ( 'NONE',  #123 ) ;
#39 = PLANE ( 'NONE',  #218 ) ;
#40 = CARTESIAN_POINT ( 'NONE',  ( 0.000000000000000000, 0.000000000000000000, 160.0000000000000000 ) ) ;
#41 = AXIS2_PLACEMENT_3D ( 'NONE', #59, #131, #209 ) ;
#42 = CYLINDRICAL_SURFACE ( 'NONE', #234, 2.000000000000000000 ) ;
#43 = CYLINDRICAL_SURFACE ( 'NONE', #67, 1.000000000000000000 ) ;
#44 = ADVANCED_FACE ( 'NONE', ( #36 ), #19, .F. ) ;
#45 = CLOSED_SHELL ( 'NONE', ( #170, #199, #216, #8, #44, #140, #9 ) ) ;
#46 = ORIENTED_EDGE ( 'NONE', *, *, #211, .T. ) ;
#47 = ORIENTED_EDGE ( 'NONE', *, *, #11, .F. ) ;
#48 = AXIS2_PLACEMENT_3D ( 'NONE', #40, #239, #155 ) ;
#49 = PERSON_AND_ORGANIZATION ( #162, #124 ) ;
#50 = EDGE_CURVE ( 'NONE', #54, #139, #180, .T. ) ;
#51 = AXIS2_PLACEMENT_3D ( 'NONE', #13, #12, #247 ) ;
#52 = PERSON_AND_ORGANIZATION_ROLE ( 'creator' ) ;
#53 = CC_DESIGN_DATE_AND_TIME_ASSIGNMENT ( #111, #224, ( #114 ) ) ;
#54 = VERTEX_POINT ( 'NONE', #97 ) ;
#55 = CC_DESIGN_SECURITY_CLASSIFICATION ( #114, ( #108 ) ) ;
#56 = PERSON_AND_ORGANIZATION ( #162, #124 ) ;
#57 = FACE_OUTER_BOUND ( 'NONE', #233, .T. ) ;
#58 = VERTEX_POINT ( 'NONE', #60 ) ;
#59 = CARTESIAN_POINT ( 'NONE',  ( 0.000000000000000000, 0.000000000000000000, 2.000000000000000000 ) ) ;
#60 = CARTESIAN_POINT ( 'NONE',  ( -2.000000000000000000, 0.000000000000000000, 2.000000000000000000 ) ) ;
#61 = DIRECTION ( 'NONE',  ( -1.000000000000000000, 0.000000000000000000, 0.000000000000000000 ) ) ;
#62 = CARTESIAN_POINT ( 'NONE',  ( -1.000000000000000000, 0.000000000000000000, 2.000000000000000000 ) ) ;
#63 = CIRCLE ( 'NONE', #244, 1.000000000000000000 ) ;
#64 = DIRECTION ( 'NONE',  ( -0.000000000000000000, -0.000000000000000000, -1.000000000000000000 ) ) ;
#65 = CC_DESIGN_APPROVAL ( #20, ( #178 ) ) ;
#66 = ORIENTED_EDGE ( 'NONE', *, *, #100, .F. ) ;
#67 = AXIS2_PLACEMENT_3D ( 'NONE', #194, #237, #103 ) ;
#68 =( NAMED_UNIT ( * ) PLANE_ANGLE_UNIT ( ) SI_UNIT ( $, .RADIAN. ) );
#69 = AXIS2_PLACEMENT_3D ( 'NONE', #182, #164, #171 ) ;
#70 = CC_DESIGN_PERSON_AND_ORGANIZATION_ASSIGNMENT ( #56, #144, ( #114 ) ) ;
#71 = DATE_AND_TIME ( #230, #208 ) ;
#72 = ORIENTED_EDGE ( 'NONE', *, *, #100, .T. ) ;
#73 = DATE_AND_TIME ( #82, #198 ) ;
#74 = CARTESIAN_POINT ( 'NONE',  ( 1.000000000000000000, 1.224646799147353207E-16, 160.0000000000000000 ) ) ;
#75 = EDGE_CURVE ( 'NONE', #139, #54, #213, .T. ) ;
#76 =( GEOMETRIC_REPRESENTATION_CONTEXT ( 3 ) GLOBAL_UNCERTAINTY_ASSIGNED_CONTEXT ( ( #241 ) ) GLOBAL_UNIT_ASSIGNED_CONTEXT ( ( #88, #68, #157 ) ) REPRESENTATION_CONTEXT ( 'NONE', 'WORKASPACE' ) );
#77 = PERSON_AND_ORGANIZATION ( #162, #124 ) ;
#78 = ORIENTED_EDGE ( 'NONE', *, *, #183, .F. ) ;
#79 = COORDINATED_UNIVERSAL_TIME_OFFSET ( 1, 0, .AHEAD. ) ;
#80 = EDGE_LOOP ( 'NONE', ( #143, #86 ) ) ;
#81 = CIRCLE ( 'NONE', #41, 1.000000000000000000 ) ;
#82 = CALENDAR_DATE ( 2023, 13, 2 ) ;
#83 = ORIENTED_EDGE ( 'NONE', *, *, #255, .T. ) ;
#84 = CC_DESIGN_PERSON_AND_ORGANIZATION_ASSIGNMENT ( #34, #16, ( #108 ) ) ;
#85 = DIRECTION ( 'NONE',  ( -0.000000000000000000, -0.000000000000000000, -1.000000000000000000 ) ) ;
#86 = ORIENTED_EDGE ( 'NONE', *, *, #104, .F. ) ;
#87 = CC_DESIGN_PERSON_AND_ORGANIZATION_ASSIGNMENT ( #77, #232, ( #28 ) ) ;
#88 =( LENGTH_UNIT ( ) NAMED_UNIT ( * ) SI_UNIT ( .MILLI., .METRE. ) );
#89 = APPLICATION_CONTEXT ( 'configuration controlled 3d designs of mechanical parts and assemblies' ) ;
#90 = CC_DESIGN_DATE_AND_TIME_ASSIGNMENT ( #207, #146, ( #178 ) ) ;
#91 = DIRECTION ( 'NONE',  ( 0.000000000000000000, 0.000000000000000000, 1.000000000000000000 ) ) ;
#92 = DIRECTION ( 'NONE',  ( 1.000000000000000000, 0.000000000000000000, 0.000000000000000000 ) ) ;
#93 = APPROVAL_DATE_TIME ( #200, #175 ) ;
#94 = EDGE_LOOP ( 'NONE', ( #201, #149, #252, #47 ) ) ;
#95 = LOCAL_TIME ( 18, 14, 37.00000000000000000, #14 ) ;
#96 = CALENDAR_DATE ( 2023, 13, 2 ) ;
#97 = CARTESIAN_POINT ( 'NONE',  ( -2.000000000000000000, 0.000000000000000000, 0.000000000000000000 ) ) ;
#98 = APPROVAL_DATE_TIME ( #73, #181 ) ;
#99 = DIRECTION ( 'NONE',  ( 0.000000000000000000, 0.000000000000000000, 1.000000000000000000 ) ) ;
#100 = EDGE_CURVE ( 'NONE', #254, #58, #197, .T. ) ;
#101 = FACE_OUTER_BOUND ( 'NONE', #226, .T. ) ;
#102 = DIRECTION ( 'NONE',  ( 1.000000000000000000, 0.000000000000000000, 0.000000000000000000 ) ) ;
#103 = DIRECTION ( 'NONE',  ( -1.000000000000000000, 0.000000000000000000, 0.000000000000000000 ) ) ;
#104 = EDGE_CURVE ( 'NONE', #210, #158, #63, .T. ) ;
#105 = APPROVAL_PERSON_ORGANIZATION ( #115, #20, #246 ) ;
#106 = CARTESIAN_POINT ( 'NONE',  ( 0.000000000000000000, 0.000000000000000000, 2.000000000000000000 ) ) ;
#107 = ORIENTED_EDGE ( 'NONE', *, *, #50, .F. ) ;
#108 = PRODUCT_DEFINITION_FORMATION_WITH_SPECIFIED_SOURCE ( 'LIBOVOLNÝ', '', #28, .NOT_KNOWN. ) ;
#109 = ORIENTED_EDGE ( 'NONE', *, *, #11, .T. ) ;
#110 = DIRECTION ( 'NONE',  ( 0.000000000000000000, 0.000000000000000000, 1.000000000000000000 ) ) ;
#111 = DATE_AND_TIME ( #96, #227 ) ;
#112 = CARTESIAN_POINT ( 'NONE',  ( -1.000000000000000000, 0.000000000000000000, 160.0000000000000000 ) ) ;
#113 = CARTESIAN_POINT ( 'NONE',  ( 0.000000000000000000, 0.000000000000000000, 0.000000000000000000 ) ) ;
#114 = SECURITY_CLASSIFICATION ( '', '', #122 ) ;
#115 = PERSON_AND_ORGANIZATION ( #162, #124 ) ;
#116 = ORIENTED_EDGE ( 'NONE', *, *, #211, .F. ) ;
#117 = CARTESIAN_POINT ( 'NONE',  ( 0.000000000000000000, 0.000000000000000000, 2.000000000000000000 ) ) ;
#118 = CARTESIAN_POINT ( 'NONE',  ( 0.000000000000000000, 0.000000000000000000, 160.0000000000000000 ) ) ;
#119 = CC_DESIGN_PERSON_AND_ORGANIZATION_ASSIGNMENT ( #191, #128, ( #178 ) ) ;
#120 = CARTESIAN_POINT ( 'NONE',  ( 0.000000000000000000, 0.000000000000000000, 160.0000000000000000 ) ) ;
#121 = ORIENTED_EDGE ( 'NONE', *, *, #50, .T. ) ;
#122 = SECURITY_CLASSIFICATION_LEVEL ( 'unclassified' ) ;
#123 = AXIS2_PLACEMENT_3D ( 'NONE', #231, #33, #192 ) ;
#124 = ORGANIZATION ( 'NEURÈENÝ', 'NEURÈENÝ', '' ) ;
#125 = DIRECTION ( 'NONE',  ( 1.000000000000000000, 0.000000000000000000, -0.000000000000000000 ) ) ;
#126 = MECHANICAL_CONTEXT ( 'NONE', #89, 'mechanical' ) ;
#127 = EDGE_LOOP ( 'NONE', ( #66, #205, #132, #78 ) ) ;
#128 = PERSON_AND_ORGANIZATION_ROLE ( 'creator' ) ;
#129 = EDGE_LOOP ( 'NONE', ( #15, #220, #109, #249 ) ) ;
#130 = APPROVAL_DATE_TIME ( #71, #20 ) ;
#131 = DIRECTION ( 'NONE',  ( 0.000000000000000000, 0.000000000000000000, 1.000000000000000000 ) ) ;
#132 = ORIENTED_EDGE ( 'NONE', *, *, #75, .T. ) ;
#133 = CARTESIAN_POINT ( 'NONE',  ( -1.000000000000000000, 0.000000000000000000, 160.0000000000000000 ) ) ;
#134 = CARTESIAN_POINT ( 'NONE',  ( 0.000000000000000000, 0.000000000000000000, 2.000000000000000000 ) ) ;
#135 = APPROVAL_PERSON_ORGANIZATION ( #49, #175, #202 ) ;
#136 = FACE_OUTER_BOUND ( 'NONE', #94, .T. ) ;
#137 = DIRECTION ( 'NONE',  ( -1.000000000000000000, 0.000000000000000000, 0.000000000000000000 ) ) ;
#138 = AXIS2_PLACEMENT_3D ( 'NONE', #113, #190, #125 ) ;
#139 = VERTEX_POINT ( 'NONE', #154 ) ;
#140 = ADVANCED_FACE ( 'NONE', ( #6 ), #43, .T. ) ;
#141 = CIRCLE ( 'NONE', #214, 1.000000000000000000 ) ;
#142 = COORDINATED_UNIVERSAL_TIME_OFFSET ( 1, 0, .AHEAD. ) ;
#143 = ORIENTED_EDGE ( 'NONE', *, *, #4, .F. ) ;
#144 = PERSON_AND_ORGANIZATION_ROLE ( 'classification_officer' ) ;
#145 = ORIENTED_EDGE ( 'NONE', *, *, #183, .T. ) ;
#146 = DATE_TIME_ROLE ( 'creation_date' ) ;
#147 = DIRECTION ( 'NONE',  ( 1.000000000000000000, 0.000000000000000000, -0.000000000000000000 ) ) ;
#148 = COORDINATED_UNIVERSAL_TIME_OFFSET ( 1, 0, .AHEAD. ) ;
#149 = ORIENTED_EDGE ( 'NONE', *, *, #18, .T. ) ;
#150 = DIRECTION ( 'NONE',  ( -0.000000000000000000, -0.000000000000000000, -1.000000000000000000 ) ) ;
#151 = CIRCLE ( 'NONE', #159, 2.000000000000000000 ) ;
#152 = DIRECTION ( 'NONE',  ( 0.000000000000000000, 0.000000000000000000, 1.000000000000000000 ) ) ;
#153 = CARTESIAN_POINT ( 'NONE',  ( 2.000000000000000000, 2.449293598294706414E-16, 2.000000000000000000 ) ) ;
#154 = CARTESIAN_POINT ( 'NONE',  ( 2.000000000000000000, 2.449293598294706414E-16, 0.000000000000000000 ) ) ;
#155 = DIRECTION ( 'NONE',  ( 1.000000000000000000, 0.000000000000000000, 0.000000000000000000 ) ) ;
#156 = PRODUCT_DEFINITION_SHAPE ( 'NONE', 'NONE',  #178 ) ;
#157 =( NAMED_UNIT ( * ) SI_UNIT ( $, .STERADIAN. ) SOLID_ANGLE_UNIT ( ) );
#158 = VERTEX_POINT ( 'NONE', #62 ) ;
#159 = AXIS2_PLACEMENT_3D ( 'NONE', #106, #22, #102 ) ;
#160 = CC_DESIGN_APPROVAL ( #181, ( #108 ) ) ;
#161 = EDGE_CURVE ( 'NONE', #222, #163, #35, .T. ) ;
#162 = PERSON ( 'NEURÈENÝ', 'NEURÈENÝ', 'NEURÈENÝ', ('NEURÈENÝ'), ('NEURÈENÝ'), ('NEURÈENÝ') ) ;
#163 = VERTEX_POINT ( 'NONE', #217 ) ;
#164 = DIRECTION ( 'NONE',  ( 0.000000000000000000, 0.000000000000000000, 1.000000000000000000 ) ) ;
#165 = CARTESIAN_POINT ( 'NONE',  ( 0.000000000000000000, 0.000000000000000000, 2.000000000000000000 ) ) ;
#166 = AXIS2_PLACEMENT_3D ( 'NONE', #31, #110, #92 ) ;
#167 = CALENDAR_DATE ( 2023, 13, 2 ) ;
#168 = VECTOR ( 'NONE', #85, 1000.000000000000000 ) ;
#169 = ORIENTED_EDGE ( 'NONE', *, *, #161, .T. ) ;
#170 = ADVANCED_FACE ( 'NONE', ( #136 ), #242, .T. ) ;
#171 = DIRECTION ( 'NONE',  ( 1.000000000000000000, 0.000000000000000000, 0.000000000000000000 ) ) ;
#172 = ORIENTED_EDGE ( 'NONE', *, *, #245, .F. ) ;
#173 = CARTESIAN_POINT ( 'NONE',  ( 0.000000000000000000, 0.000000000000000000, 2.000000000000000000 ) ) ;
#174 = DIRECTION ( 'NONE',  ( 1.000000000000000000, 0.000000000000000000, 0.000000000000000000 ) ) ;
#175 = APPROVAL ( #187, 'NEURÈENÝ' ) ;
#176 = CARTESIAN_POINT ( 'NONE',  ( 2.000000000000000000, 2.449293598294706414E-16, 2.000000000000000000 ) ) ;
#177 = VECTOR ( 'NONE', #212, 1000.000000000000000 ) ;
#178 = PRODUCT_DEFINITION ( 'NEZNÁMÝ', '', #108, #221 ) ;
#179 = DIRECTION ( 'NONE',  ( 1.000000000000000000, 0.000000000000000000, 0.000000000000000000 ) ) ;
#180 = CIRCLE ( 'NONE', #21, 2.000000000000000000 ) ;
#181 = APPROVAL ( #225, 'NEURÈENÝ' ) ;
#182 = CARTESIAN_POINT ( 'NONE',  ( 0.000000000000000000, 0.000000000000000000, 0.000000000000000000 ) ) ;
#183 = EDGE_CURVE ( 'NONE', #58, #54, #5, .T. ) ;
#184 = LOCAL_TIME ( 18, 14, 37.00000000000000000, #142 ) ;
#185 = LINE ( 'NONE', #74, #26 ) ;
#186 = FACE_BOUND ( 'NONE', #80, .T. ) ;
#187 = APPROVAL_STATUS ( 'not_yet_approved' ) ;
#188 = EDGE_LOOP ( 'NONE', ( #46, #72 ) ) ;
#189 = PERSON_AND_ORGANIZATION ( #162, #124 ) ;
#190 = DIRECTION ( 'NONE',  ( 0.000000000000000000, 0.000000000000000000, 1.000000000000000000 ) ) ;
#191 = PERSON_AND_ORGANIZATION ( #162, #124 ) ;
#192 = DIRECTION ( 'NONE',  ( 1.000000000000000000, 0.000000000000000000, -0.000000000000000000 ) ) ;
#193 = LINE ( 'NONE', #176, #168 ) ;
#194 = CARTESIAN_POINT ( 'NONE',  ( 0.000000000000000000, 0.000000000000000000, 160.0000000000000000 ) ) ;
#195 = APPLICATION_PROTOCOL_DEFINITION ( 'international standard', 'config_control_design', 1994, #89 ) ;
#196 = PRODUCT_RELATED_PRODUCT_CATEGORY ( 'detail', '', ( #28 ) ) ;
#197 = CIRCLE ( 'NONE', #166, 2.000000000000000000 ) ;
#198 = LOCAL_TIME ( 18, 14, 37.00000000000000000, #79 ) ;
#199 = ADVANCED_FACE ( 'NONE', ( #240 ), #42, .T. ) ;
#200 = DATE_AND_TIME ( #251, #95 ) ;
#201 = ORIENTED_EDGE ( 'NONE', *, *, #255, .F. ) ;
#202 = APPROVAL_ROLE ( '' ) ;
#203 = FACE_OUTER_BOUND ( 'NONE', #188, .T. ) ;
#204 = APPROVAL_ROLE ( '' ) ;
#205 = ORIENTED_EDGE ( 'NONE', *, *, #245, .T. ) ;
#206 = LINE ( 'NONE', #112, #2 ) ;
#207 = DATE_AND_TIME ( #167, #184 ) ;
#208 = LOCAL_TIME ( 18, 14, 37.00000000000000000, #148 ) ;
#209 = DIRECTION ( 'NONE',  ( 1.000000000000000000, 0.000000000000000000, 0.000000000000000000 ) ) ;
#210 = VERTEX_POINT ( 'NONE', #25 ) ;
#211 = EDGE_CURVE ( 'NONE', #58, #254, #151, .T. ) ;
#212 = DIRECTION ( 'NONE',  ( -0.000000000000000000, -0.000000000000000000, -1.000000000000000000 ) ) ;
#213 = CIRCLE ( 'NONE', #51, 2.000000000000000000 ) ;
#214 = AXIS2_PLACEMENT_3D ( 'NONE', #118, #23, #179 ) ;
#215 = DIRECTION ( 'NONE',  ( -0.000000000000000000, -0.000000000000000000, -1.000000000000000000 ) ) ;
#216 = ADVANCED_FACE ( 'NONE', ( #101 ), #236, .T. ) ;
#217 = CARTESIAN_POINT ( 'NONE',  ( 1.000000000000000000, 1.224646799147353207E-16, 160.0000000000000000 ) ) ;
#218 = AXIS2_PLACEMENT_3D ( 'NONE', #173, #91, #147 ) ;
#219 = CARTESIAN_POINT ( 'NONE',  ( -2.000000000000000000, 0.000000000000000000, 2.000000000000000000 ) ) ;
#220 = ORIENTED_EDGE ( 'NONE', *, *, #161, .F. ) ;
#221 = DESIGN_CONTEXT ( 'detailed design', #7, 'design' ) ;
#222 = VERTEX_POINT ( 'NONE', #133 ) ;
#223 = MANIFOLD_SOLID_BREP ( 'Pøidat vysunutím3', #45 ) ;
#224 = DATE_TIME_ROLE ( 'classification_date' ) ;
#225 = APPROVAL_STATUS ( 'not_yet_approved' ) ;
#226 = EDGE_LOOP ( 'NONE', ( #172, #116, #145, #121 ) ) ;
#227 = LOCAL_TIME ( 18, 14, 37.00000000000000000, #32 ) ;
#228 = ORIENTED_EDGE ( 'NONE', *, *, #75, .F. ) ;
#229 = CC_DESIGN_PERSON_AND_ORGANIZATION_ASSIGNMENT ( #189, #52, ( #108 ) ) ;
#230 = CALENDAR_DATE ( 2023, 13, 2 ) ;
#231 = CARTESIAN_POINT ( 'NONE',  ( 0.000000000000000000, 0.000000000000000000, 160.0000000000000000 ) ) ;
#232 = PERSON_AND_ORGANIZATION_ROLE ( 'design_owner' ) ;
#233 = EDGE_LOOP ( 'NONE', ( #169, #83 ) ) ;
#234 = AXIS2_PLACEMENT_3D ( 'NONE', #117, #3, #137 ) ;
#235 = DIRECTION ( 'NONE',  ( 1.000000000000000000, 0.000000000000000000, 0.000000000000000000 ) ) ;
#236 = CYLINDRICAL_SURFACE ( 'NONE', #27, 2.000000000000000000 ) ;
#237 = DIRECTION ( 'NONE',  ( -0.000000000000000000, -0.000000000000000000, -1.000000000000000000 ) ) ;
#238 = CC_DESIGN_APPROVAL ( #175, ( #114 ) ) ;
#239 = DIRECTION ( 'NONE',  ( 0.000000000000000000, 0.000000000000000000, 1.000000000000000000 ) ) ;
#240 = FACE_OUTER_BOUND ( 'NONE', #127, .T. ) ;
#241 = UNCERTAINTY_MEASURE_WITH_UNIT (LENGTH_MEASURE( 1.000000000000000082E-05 ), #88, 'distance_accuracy_value', 'NONE');
#242 = CYLINDRICAL_SURFACE ( 'NONE', #10, 1.000000000000000000 ) ;
#243 = ADVANCED_BREP_SHAPE_REPRESENTATION ( 'b1ed', ( #223, #69 ), #76 ) ;
#244 = AXIS2_PLACEMENT_3D ( 'NONE', #165, #152, #174 ) ;
#245 = EDGE_CURVE ( 'NONE', #254, #139, #193, .T. ) ;
#246 = APPROVAL_ROLE ( '' ) ;
#247 = DIRECTION ( 'NONE',  ( 1.000000000000000000, 0.000000000000000000, 0.000000000000000000 ) ) ;
#248 = APPROVAL_STATUS ( 'not_yet_approved' ) ;
#249 = ORIENTED_EDGE ( 'NONE', *, *, #4, .T. ) ;
#250 = APPROVAL_PERSON_ORGANIZATION ( #37, #181, #204 ) ;
#251 = CALENDAR_DATE ( 2023, 13, 2 ) ;
#252 = ORIENTED_EDGE ( 'NONE', *, *, #104, .T. ) ;
#253 = APPLICATION_PROTOCOL_DEFINITION ( 'international standard', 'config_control_design', 1994, #7 ) ;
#254 = VERTEX_POINT ( 'NONE', #153 ) ;
#255 = EDGE_CURVE ( 'NONE', #163, #222, #141, .T. ) ;
ENDSEC;
END-ISO-10303-21;
