ISO-10303-21;
HEADER;
FILE_DESCRIPTION (( 'STEP AP203' ),
    '1' );
FILE_NAME ('6915.STEP',
    '2023-02-13T10:37:57',
    ( '' ),
    ( '' ),
    'SwSTEP 2.0',
    'SolidWorks 2019',
    '' );
FILE_SCHEMA (( 'CONFIG_CONTROL_DESIGN' ));
ENDSEC;

DATA;
#1 = VERTEX_POINT ( 'NONE', #84 ) ;
#2 = APPROVAL_ROLE ( '' ) ;
#3 = CALENDAR_DATE ( 2023, 13, 2 ) ;
#4 = EDGE_LOOP ( 'NONE', ( #106, #223, #107, #152 ) ) ;
#5 = ORIENTED_EDGE ( 'NONE', *, *, #169, .T. ) ;
#6 = DIRECTION ( 'NONE',  ( -1.000000000000000000, 0.000000000000000000, 0.000000000000000000 ) ) ;
#7 = CARTESIAN_POINT ( 'NONE',  ( 0.000000000000000000, 0.000000000000000000, 7.000000000000000000 ) ) ;
#8 =( GEOMETRIC_REPRESENTATION_CONTEXT ( 3 ) GLOBAL_UNCERTAINTY_ASSIGNED_CONTEXT ( ( #118 ) ) GLOBAL_UNIT_ASSIGNED_CONTEXT ( ( #92, #117, #116 ) ) REPRESENTATION_CONTEXT ( 'NONE', 'WORKASPACE' ) );
#9 = CARTESIAN_POINT ( 'NONE',  ( -9.000000000000000000, 0.000000000000000000, 7.000000000000000000 ) ) ;
#10 = CYLINDRICAL_SURFACE ( 'NONE', #159, 9.000000000000000000 ) ;
#11 = CIRCLE ( 'NONE', #59, 9.000000000000000000 ) ;
#12 = PRODUCT_RELATED_PRODUCT_CATEGORY ( 'detail', '', ( #167 ) ) ;
#13 = DIRECTION ( 'NONE',  ( -0.000000000000000000, -0.000000000000000000, -1.000000000000000000 ) ) ;
#14 = PLANE ( 'NONE',  #74 ) ;
#15 = DIRECTION ( 'NONE',  ( 1.000000000000000000, 0.000000000000000000, 0.000000000000000000 ) ) ;
#16 = DIRECTION ( 'NONE',  ( -0.000000000000000000, -0.000000000000000000, -1.000000000000000000 ) ) ;
#17 = CIRCLE ( 'NONE', #114, 9.000000000000000000 ) ;
#18 = PERSON_AND_ORGANIZATION ( #247, #104 ) ;
#19 = ORIENTED_EDGE ( 'NONE', *, *, #35, .T. ) ;
#20 = APPROVAL_DATE_TIME ( #123, #206 ) ;
#21 = CC_DESIGN_APPROVAL ( #53, ( #140 ) ) ;
#22 = APPLICATION_PROTOCOL_DEFINITION ( 'international standard', 'config_control_design', 1994, #129 ) ;
#23 = PRODUCT_DEFINITION_SHAPE ( 'NONE', 'NONE',  #37 ) ;
#24 = CC_DESIGN_DATE_AND_TIME_ASSIGNMENT ( #216, #178, ( #37 ) ) ;
#25 = PERSON_AND_ORGANIZATION_ROLE ( 'creator' ) ;
#26 = DIRECTION ( 'NONE',  ( 0.000000000000000000, 0.000000000000000000, 1.000000000000000000 ) ) ;
#27 = CARTESIAN_POINT ( 'NONE',  ( 0.000000000000000000, 0.000000000000000000, 7.000000000000000000 ) ) ;
#28 = DIRECTION ( 'NONE',  ( 0.000000000000000000, 0.000000000000000000, 1.000000000000000000 ) ) ;
#29 = VERTEX_POINT ( 'NONE', #127 ) ;
#30 = FACE_BOUND ( 'NONE', #149, .T. ) ;
#31 = PERSON_AND_ORGANIZATION ( #247, #104 ) ;
#32 = APPROVAL_PERSON_ORGANIZATION ( #55, #46, #2 ) ;
#33 = DIRECTION ( 'NONE',  ( 0.000000000000000000, 0.000000000000000000, 1.000000000000000000 ) ) ;
#34 = AXIS2_PLACEMENT_3D ( 'NONE', #88, #243, #68 ) ;
#35 = EDGE_CURVE ( 'NONE', #65, #29, #86, .T. ) ;
#36 = COORDINATED_UNIVERSAL_TIME_OFFSET ( 1, 0, .AHEAD. ) ;
#37 = PRODUCT_DEFINITION ( 'NEZNÁMÝ', '', #140, #89 ) ;
#38 = APPROVAL_STATUS ( 'not_yet_approved' ) ;
#39 = ORIENTED_EDGE ( 'NONE', *, *, #183, .T. ) ;
#40 = CIRCLE ( 'NONE', #151, 6.250000000000000000 ) ;
#41 = EDGE_LOOP ( 'NONE', ( #220, #5 ) ) ;
#42 = EDGE_CURVE ( 'NONE', #157, #1, #11, .T. ) ;
#43 = DIRECTION ( 'NONE',  ( 1.000000000000000000, 0.000000000000000000, 0.000000000000000000 ) ) ;
#44 = DIRECTION ( 'NONE',  ( 0.000000000000000000, 0.000000000000000000, 1.000000000000000000 ) ) ;
#45 = DIRECTION ( 'NONE',  ( 1.000000000000000000, 0.000000000000000000, -0.000000000000000000 ) ) ;
#46 = APPROVAL ( #98, 'NEURÈENÝ' ) ;
#47 = CARTESIAN_POINT ( 'NONE',  ( 0.000000000000000000, 0.000000000000000000, 0.000000000000000000 ) ) ;
#48 = CYLINDRICAL_SURFACE ( 'NONE', #245, 9.000000000000000000 ) ;
#49 = DIRECTION ( 'NONE',  ( 1.000000000000000000, 0.000000000000000000, -0.000000000000000000 ) ) ;
#50 = DIRECTION ( 'NONE',  ( -1.000000000000000000, 0.000000000000000000, 0.000000000000000000 ) ) ;
#51 = CARTESIAN_POINT ( 'NONE',  ( 6.250000000000000000, 7.654042494670957606E-16, 250.0000000000000000 ) ) ;
#52 = COORDINATED_UNIVERSAL_TIME_OFFSET ( 1, 0, .AHEAD. ) ;
#53 = APPROVAL ( #38, 'NEURÈENÝ' ) ;
#54 = CALENDAR_DATE ( 2023, 13, 2 ) ;
#55 = PERSON_AND_ORGANIZATION ( #247, #104 ) ;
#56 = ORIENTED_EDGE ( 'NONE', *, *, #156, .F. ) ;
#57 = APPLICATION_CONTEXT ( 'configuration controlled 3d designs of mechanical parts and assemblies' ) ;
#58 = COORDINATED_UNIVERSAL_TIME_OFFSET ( 1, 0, .AHEAD. ) ;
#59 = AXIS2_PLACEMENT_3D ( 'NONE', #27, #44, #164 ) ;
#60 = APPROVAL_PERSON_ORGANIZATION ( #198, #206, #142 ) ;
#61 = ORIENTED_EDGE ( 'NONE', *, *, #115, .F. ) ;
#62 = FACE_OUTER_BOUND ( 'NONE', #41, .T. ) ;
#63 = ADVANCED_BREP_SHAPE_REPRESENTATION ( '6915', ( #161, #126 ), #8 ) ;
#64 = LOCAL_TIME ( 11, 37, 57.00000000000000000, #36 ) ;
#65 = VERTEX_POINT ( 'NONE', #189 ) ;
#66 = LINE ( 'NONE', #9, #131 ) ;
#67 = CC_DESIGN_PERSON_AND_ORGANIZATION_ASSIGNMENT ( #31, #113, ( #167 ) ) ;
#68 = DIRECTION ( 'NONE',  ( 1.000000000000000000, 0.000000000000000000, -0.000000000000000000 ) ) ;
#69 = CARTESIAN_POINT ( 'NONE',  ( -6.250000000000000000, 0.000000000000000000, 250.0000000000000000 ) ) ;
#70 = DIRECTION ( 'NONE',  ( -0.000000000000000000, -0.000000000000000000, -1.000000000000000000 ) ) ;
#71 = CYLINDRICAL_SURFACE ( 'NONE', #95, 6.250000000000000000 ) ;
#72 = EDGE_CURVE ( 'NONE', #29, #125, #40, .T. ) ;
#73 = LINE ( 'NONE', #175, #76 ) ;
#74 = AXIS2_PLACEMENT_3D ( 'NONE', #209, #229, #49 ) ;
#75 = DIRECTION ( 'NONE',  ( -1.000000000000000000, 0.000000000000000000, 0.000000000000000000 ) ) ;
#76 = VECTOR ( 'NONE', #246, 1000.000000000000000 ) ;
#77 = CALENDAR_DATE ( 2023, 13, 2 ) ;
#78 = EDGE_LOOP ( 'NONE', ( #188, #56, #19, #238 ) ) ;
#79 = CALENDAR_DATE ( 2023, 13, 2 ) ;
#80 = CIRCLE ( 'NONE', #192, 6.250000000000000000 ) ;
#81 = LOCAL_TIME ( 11, 37, 57.00000000000000000, #52 ) ;
#82 = DATE_AND_TIME ( #250, #211 ) ;
#83 = EDGE_LOOP ( 'NONE', ( #203, #224 ) ) ;
#84 = CARTESIAN_POINT ( 'NONE',  ( 9.000000000000000000, 1.102182119232617714E-15, 7.000000000000000000 ) ) ;
#85 = DIRECTION ( 'NONE',  ( 0.000000000000000000, 0.000000000000000000, 1.000000000000000000 ) ) ;
#86 = LINE ( 'NONE', #69, #210 ) ;
#87 = EDGE_CURVE ( 'NONE', #148, #168, #237, .T. ) ;
#88 = CARTESIAN_POINT ( 'NONE',  ( 0.000000000000000000, 0.000000000000000000, 250.0000000000000000 ) ) ;
#89 = DESIGN_CONTEXT ( 'detailed design', #129, 'design' ) ;
#90 = CARTESIAN_POINT ( 'NONE',  ( 0.000000000000000000, 0.000000000000000000, 7.000000000000000000 ) ) ;
#91 = CARTESIAN_POINT ( 'NONE',  ( 9.000000000000000000, 1.102182119232617714E-15, 0.000000000000000000 ) ) ;
#92 =( LENGTH_UNIT ( ) NAMED_UNIT ( * ) SI_UNIT ( .MILLI., .METRE. ) );
#93 = ADVANCED_FACE ( 'NONE', ( #30, #62 ), #146, .T. ) ;
#94 = DIRECTION ( 'NONE',  ( 0.000000000000000000, 0.000000000000000000, 1.000000000000000000 ) ) ;
#95 = AXIS2_PLACEMENT_3D ( 'NONE', #139, #153, #75 ) ;
#96 = CC_DESIGN_DATE_AND_TIME_ASSIGNMENT ( #234, #144, ( #147 ) ) ;
#97 = APPLICATION_PROTOCOL_DEFINITION ( 'international standard', 'config_control_design', 1994, #57 ) ;
#98 = APPROVAL_STATUS ( 'not_yet_approved' ) ;
#99 = ORIENTED_EDGE ( 'NONE', *, *, #197, .F. ) ;
#100 = AXIS2_PLACEMENT_3D ( 'NONE', #90, #85, #45 ) ;
#101 = PERSON_AND_ORGANIZATION ( #247, #104 ) ;
#102 = COORDINATED_UNIVERSAL_TIME_OFFSET ( 1, 0, .AHEAD. ) ;
#103 = DATE_AND_TIME ( #77, #64 ) ;
#104 = ORGANIZATION ( 'NEURÈENÝ', 'NEURÈENÝ', '' ) ;
#105 = EDGE_CURVE ( 'NONE', #157, #148, #66, .T. ) ;
#106 = ORIENTED_EDGE ( 'NONE', *, *, #202, .F. ) ;
#107 = ORIENTED_EDGE ( 'NONE', *, *, #105, .T. ) ;
#108 = PLANE ( 'NONE',  #34 ) ;
#109 = CLOSED_SHELL ( 'NONE', ( #200, #138, #255, #93, #212, #226, #134 ) ) ;
#110 = CC_DESIGN_APPROVAL ( #206, ( #37 ) ) ;
#111 = DIRECTION ( 'NONE',  ( -0.000000000000000000, -0.000000000000000000, -1.000000000000000000 ) ) ;
#112 = ORIENTED_EDGE ( 'NONE', *, *, #197, .T. ) ;
#113 = PERSON_AND_ORGANIZATION_ROLE ( 'design_owner' ) ;
#114 = AXIS2_PLACEMENT_3D ( 'NONE', #191, #232, #15 ) ;
#115 = EDGE_CURVE ( 'NONE', #125, #29, #240, .T. ) ;
#116 =( NAMED_UNIT ( * ) SI_UNIT ( $, .STERADIAN. ) SOLID_ANGLE_UNIT ( ) );
#117 =( NAMED_UNIT ( * ) PLANE_ANGLE_UNIT ( ) SI_UNIT ( $, .RADIAN. ) );
#118 = UNCERTAINTY_MEASURE_WITH_UNIT (LENGTH_MEASURE( 1.000000000000000082E-05 ), #92, 'distance_accuracy_value', 'NONE');
#119 = CC_DESIGN_PERSON_AND_ORGANIZATION_ASSIGNMENT ( #141, #158, ( #37 ) ) ;
#120 = COORDINATED_UNIVERSAL_TIME_OFFSET ( 1, 0, .AHEAD. ) ;
#121 = AXIS2_PLACEMENT_3D ( 'NONE', #219, #244, #43 ) ;
#122 = APPROVAL_DATE_TIME ( #82, #53 ) ;
#123 = DATE_AND_TIME ( #3, #132 ) ;
#124 = CC_DESIGN_PERSON_AND_ORGANIZATION_ASSIGNMENT ( #236, #199, ( #140 ) ) ;
#125 = VERTEX_POINT ( 'NONE', #130 ) ;
#126 = AXIS2_PLACEMENT_3D ( 'NONE', #196, #194, #174 ) ;
#127 = CARTESIAN_POINT ( 'NONE',  ( -6.250000000000000000, 0.000000000000000000, 7.000000000000000000 ) ) ;
#128 = CARTESIAN_POINT ( 'NONE',  ( -9.000000000000000000, 0.000000000000000000, 0.000000000000000000 ) ) ;
#129 = APPLICATION_CONTEXT ( 'configuration controlled 3d designs of mechanical parts and assemblies' ) ;
#130 = CARTESIAN_POINT ( 'NONE',  ( 6.250000000000000000, 7.654042494670957606E-16, 7.000000000000000000 ) ) ;
#131 = VECTOR ( 'NONE', #133, 1000.000000000000000 ) ;
#132 = LOCAL_TIME ( 11, 37, 57.00000000000000000, #120 ) ;
#133 = DIRECTION ( 'NONE',  ( -0.000000000000000000, -0.000000000000000000, -1.000000000000000000 ) ) ;
#134 = ADVANCED_FACE ( 'NONE', ( #208 ), #108, .T. ) ;
#135 = DIRECTION ( 'NONE',  ( -1.000000000000000000, 0.000000000000000000, 0.000000000000000000 ) ) ;
#136 = FACE_OUTER_BOUND ( 'NONE', #78, .T. ) ;
#137 = DIRECTION ( 'NONE',  ( 1.000000000000000000, 0.000000000000000000, 0.000000000000000000 ) ) ;
#138 = ADVANCED_FACE ( 'NONE', ( #201 ), #10, .T. ) ;
#139 = CARTESIAN_POINT ( 'NONE',  ( 0.000000000000000000, 0.000000000000000000, 250.0000000000000000 ) ) ;
#140 = PRODUCT_DEFINITION_FORMATION_WITH_SPECIFIED_SOURCE ( 'LIBOVOLNÝ', '', #167, .NOT_KNOWN. ) ;
#141 = PERSON_AND_ORGANIZATION ( #247, #104 ) ;
#142 = APPROVAL_ROLE ( '' ) ;
#143 = PERSON_AND_ORGANIZATION_ROLE ( 'classification_officer' ) ;
#144 = DATE_TIME_ROLE ( 'classification_date' ) ;
#145 = CC_DESIGN_PERSON_AND_ORGANIZATION_ASSIGNMENT ( #18, #143, ( #147 ) ) ;
#146 = PLANE ( 'NONE',  #100 ) ;
#147 = SECURITY_CLASSIFICATION ( '', '', #254 ) ;
#148 = VERTEX_POINT ( 'NONE', #128 ) ;
#149 = EDGE_LOOP ( 'NONE', ( #190, #61 ) ) ;
#150 = ORIENTED_EDGE ( 'NONE', *, *, #87, .F. ) ;
#151 = AXIS2_PLACEMENT_3D ( 'NONE', #166, #165, #239 ) ;
#152 = ORIENTED_EDGE ( 'NONE', *, *, #87, .T. ) ;
#153 = DIRECTION ( 'NONE',  ( -0.000000000000000000, -0.000000000000000000, -1.000000000000000000 ) ) ;
#154 = CARTESIAN_POINT ( 'NONE',  ( 0.000000000000000000, 0.000000000000000000, 7.000000000000000000 ) ) ;
#155 = LINE ( 'NONE', #230, #207 ) ;
#156 = EDGE_CURVE ( 'NONE', #65, #218, #80, .T. ) ;
#157 = VERTEX_POINT ( 'NONE', #177 ) ;
#158 = PERSON_AND_ORGANIZATION_ROLE ( 'creator' ) ;
#159 = AXIS2_PLACEMENT_3D ( 'NONE', #7, #187, #6 ) ;
#160 = APPROVAL_ROLE ( '' ) ;
#161 = MANIFOLD_SOLID_BREP ( 'Pøidat vysunutím3', #109 ) ;
#162 = APPROVAL_PERSON_ORGANIZATION ( #180, #53, #160 ) ;
#163 = ORIENTED_EDGE ( 'NONE', *, *, #221, .F. ) ;
#164 = DIRECTION ( 'NONE',  ( 1.000000000000000000, 0.000000000000000000, 0.000000000000000000 ) ) ;
#165 = DIRECTION ( 'NONE',  ( 0.000000000000000000, 0.000000000000000000, 1.000000000000000000 ) ) ;
#166 = CARTESIAN_POINT ( 'NONE',  ( 0.000000000000000000, 0.000000000000000000, 7.000000000000000000 ) ) ;
#167 = PRODUCT ( '6915', '6915', '', ( #249 ) ) ;
#168 = VERTEX_POINT ( 'NONE', #91 ) ;
#169 = EDGE_CURVE ( 'NONE', #1, #157, #171, .T. ) ;
#170 = EDGE_LOOP ( 'NONE', ( #252, #235, #112, #205 ) ) ;
#171 = CIRCLE ( 'NONE', #251, 9.000000000000000000 ) ;
#172 = CC_DESIGN_SECURITY_CLASSIFICATION ( #147, ( #140 ) ) ;
#173 = CARTESIAN_POINT ( 'NONE',  ( 0.000000000000000000, 0.000000000000000000, 250.0000000000000000 ) ) ;
#174 = DIRECTION ( 'NONE',  ( 1.000000000000000000, 0.000000000000000000, 0.000000000000000000 ) ) ;
#175 = CARTESIAN_POINT ( 'NONE',  ( 6.250000000000000000, 7.654042494670957606E-16, 250.0000000000000000 ) ) ;
#176 = CARTESIAN_POINT ( 'NONE',  ( 0.000000000000000000, 0.000000000000000000, 7.000000000000000000 ) ) ;
#177 = CARTESIAN_POINT ( 'NONE',  ( -9.000000000000000000, 0.000000000000000000, 7.000000000000000000 ) ) ;
#178 = DATE_TIME_ROLE ( 'creation_date' ) ;
#179 = ORIENTED_EDGE ( 'NONE', *, *, #35, .F. ) ;
#180 = PERSON_AND_ORGANIZATION ( #247, #104 ) ;
#181 = APPROVAL_DATE_TIME ( #103, #46 ) ;
#182 = EDGE_LOOP ( 'NONE', ( #150, #99 ) ) ;
#183 = EDGE_CURVE ( 'NONE', #218, #125, #73, .T. ) ;
#184 = AXIS2_PLACEMENT_3D ( 'NONE', #47, #28, #241 ) ;
#185 = AXIS2_PLACEMENT_3D ( 'NONE', #173, #70, #50 ) ;
#186 = DIRECTION ( 'NONE',  ( 1.000000000000000000, 0.000000000000000000, 0.000000000000000000 ) ) ;
#187 = DIRECTION ( 'NONE',  ( -0.000000000000000000, -0.000000000000000000, -1.000000000000000000 ) ) ;
#188 = ORIENTED_EDGE ( 'NONE', *, *, #183, .F. ) ;
#189 = CARTESIAN_POINT ( 'NONE',  ( -6.250000000000000000, 0.000000000000000000, 250.0000000000000000 ) ) ;
#190 = ORIENTED_EDGE ( 'NONE', *, *, #72, .F. ) ;
#191 = CARTESIAN_POINT ( 'NONE',  ( 0.000000000000000000, 0.000000000000000000, 0.000000000000000000 ) ) ;
#192 = AXIS2_PLACEMENT_3D ( 'NONE', #204, #26, #186 ) ;
#193 = LOCAL_TIME ( 11, 37, 57.00000000000000000, #58 ) ;
#194 = DIRECTION ( 'NONE',  ( 0.000000000000000000, 0.000000000000000000, 1.000000000000000000 ) ) ;
#195 = CYLINDRICAL_SURFACE ( 'NONE', #185, 6.250000000000000000 ) ;
#196 = CARTESIAN_POINT ( 'NONE',  ( 0.000000000000000000, 0.000000000000000000, 0.000000000000000000 ) ) ;
#197 = EDGE_CURVE ( 'NONE', #168, #148, #17, .T. ) ;
#198 = PERSON_AND_ORGANIZATION ( #247, #104 ) ;
#199 = PERSON_AND_ORGANIZATION_ROLE ( 'design_supplier' ) ;
#200 = ADVANCED_FACE ( 'NONE', ( #214 ), #195, .T. ) ;
#201 = FACE_OUTER_BOUND ( 'NONE', #170, .T. ) ;
#202 = EDGE_CURVE ( 'NONE', #1, #168, #155, .T. ) ;
#203 = ORIENTED_EDGE ( 'NONE', *, *, #156, .T. ) ;
#204 = CARTESIAN_POINT ( 'NONE',  ( 0.000000000000000000, 0.000000000000000000, 250.0000000000000000 ) ) ;
#205 = ORIENTED_EDGE ( 'NONE', *, *, #105, .F. ) ;
#206 = APPROVAL ( #233, 'NEURÈENÝ' ) ;
#207 = VECTOR ( 'NONE', #16, 1000.000000000000000 ) ;
#208 = FACE_OUTER_BOUND ( 'NONE', #83, .T. ) ;
#209 = CARTESIAN_POINT ( 'NONE',  ( 0.000000000000000000, 0.000000000000000000, 0.000000000000000000 ) ) ;
#210 = VECTOR ( 'NONE', #111, 1000.000000000000000 ) ;
#211 = LOCAL_TIME ( 11, 37, 57.00000000000000000, #102 ) ;
#212 = ADVANCED_FACE ( 'NONE', ( #227 ), #14, .F. ) ;
#213 = FACE_OUTER_BOUND ( 'NONE', #4, .T. ) ;
#214 = FACE_OUTER_BOUND ( 'NONE', #222, .T. ) ;
#215 = AXIS2_PLACEMENT_3D ( 'NONE', #225, #33, #137 ) ;
#216 = DATE_AND_TIME ( #54, #81 ) ;
#217 = SHAPE_DEFINITION_REPRESENTATION ( #23, #63 ) ;
#218 = VERTEX_POINT ( 'NONE', #51 ) ;
#219 = CARTESIAN_POINT ( 'NONE',  ( 0.000000000000000000, 0.000000000000000000, 7.000000000000000000 ) ) ;
#220 = ORIENTED_EDGE ( 'NONE', *, *, #42, .T. ) ;
#221 = EDGE_CURVE ( 'NONE', #218, #65, #253, .T. ) ;
#222 = EDGE_LOOP ( 'NONE', ( #163, #39, #242, #179 ) ) ;
#223 = ORIENTED_EDGE ( 'NONE', *, *, #42, .F. ) ;
#224 = ORIENTED_EDGE ( 'NONE', *, *, #221, .T. ) ;
#225 = CARTESIAN_POINT ( 'NONE',  ( 0.000000000000000000, 0.000000000000000000, 250.0000000000000000 ) ) ;
#226 = ADVANCED_FACE ( 'NONE', ( #136 ), #71, .T. ) ;
#227 = FACE_OUTER_BOUND ( 'NONE', #182, .T. ) ;
#228 = CC_DESIGN_APPROVAL ( #46, ( #147 ) ) ;
#229 = DIRECTION ( 'NONE',  ( 0.000000000000000000, 0.000000000000000000, 1.000000000000000000 ) ) ;
#230 = CARTESIAN_POINT ( 'NONE',  ( 9.000000000000000000, 1.102182119232617714E-15, 7.000000000000000000 ) ) ;
#231 = CC_DESIGN_PERSON_AND_ORGANIZATION_ASSIGNMENT ( #101, #25, ( #140 ) ) ;
#232 = DIRECTION ( 'NONE',  ( 0.000000000000000000, 0.000000000000000000, 1.000000000000000000 ) ) ;
#233 = APPROVAL_STATUS ( 'not_yet_approved' ) ;
#234 = DATE_AND_TIME ( #79, #193 ) ;
#235 = ORIENTED_EDGE ( 'NONE', *, *, #202, .T. ) ;
#236 = PERSON_AND_ORGANIZATION ( #247, #104 ) ;
#237 = CIRCLE ( 'NONE', #184, 9.000000000000000000 ) ;
#238 = ORIENTED_EDGE ( 'NONE', *, *, #72, .T. ) ;
#239 = DIRECTION ( 'NONE',  ( 1.000000000000000000, 0.000000000000000000, 0.000000000000000000 ) ) ;
#240 = CIRCLE ( 'NONE', #121, 6.250000000000000000 ) ;
#241 = DIRECTION ( 'NONE',  ( 1.000000000000000000, 0.000000000000000000, 0.000000000000000000 ) ) ;
#242 = ORIENTED_EDGE ( 'NONE', *, *, #115, .T. ) ;
#243 = DIRECTION ( 'NONE',  ( 0.000000000000000000, 0.000000000000000000, 1.000000000000000000 ) ) ;
#244 = DIRECTION ( 'NONE',  ( 0.000000000000000000, 0.000000000000000000, 1.000000000000000000 ) ) ;
#245 = AXIS2_PLACEMENT_3D ( 'NONE', #176, #13, #135 ) ;
#246 = DIRECTION ( 'NONE',  ( -0.000000000000000000, -0.000000000000000000, -1.000000000000000000 ) ) ;
#247 = PERSON ( 'NEURÈENÝ', 'NEURÈENÝ', 'NEURÈENÝ', ('NEURÈENÝ'), ('NEURÈENÝ'), ('NEURÈENÝ') ) ;
#248 = DIRECTION ( 'NONE',  ( 1.000000000000000000, 0.000000000000000000, 0.000000000000000000 ) ) ;
#249 = MECHANICAL_CONTEXT ( 'NONE', #57, 'mechanical' ) ;
#250 = CALENDAR_DATE ( 2023, 13, 2 ) ;
#251 = AXIS2_PLACEMENT_3D ( 'NONE', #154, #94, #248 ) ;
#252 = ORIENTED_EDGE ( 'NONE', *, *, #169, .F. ) ;
#253 = CIRCLE ( 'NONE', #215, 6.250000000000000000 ) ;
#254 = SECURITY_CLASSIFICATION_LEVEL ( 'unclassified' ) ;
#255 = ADVANCED_FACE ( 'NONE', ( #213 ), #48, .T. ) ;
ENDSEC;
END-ISO-10303-21;
