ISO-10303-21;
HEADER;
FILE_DESCRIPTION (( 'STEP AP203' ),
    '1' );
FILE_NAME ('2d69.STEP',
    '2023-02-13T17:05:39',
    ( '' ),
    ( '' ),
    'SwSTEP 2.0',
    'SolidWorks 2019',
    '' );
FILE_SCHEMA (( 'CONFIG_CONTROL_DESIGN' ));
ENDSEC;

DATA;
#1 = CIRCLE ( 'NONE', #34, 2.000000000000000000 ) ;
#2 = CARTESIAN_POINT ( 'NONE',  ( -1.100000000000000089, 0.000000000000000000, 315.0000000000000000 ) ) ;
#3 = AXIS2_PLACEMENT_3D ( 'NONE', #246, #41, #76 ) ;
#4 = DIRECTION ( 'NONE',  ( 0.000000000000000000, 0.000000000000000000, 1.000000000000000000 ) ) ;
#5 = LINE ( 'NONE', #163, #120 ) ;
#6 = ADVANCED_FACE ( 'NONE', ( #236, #52 ), #218, .T. ) ;
#7 = APPROVAL_STATUS ( 'not_yet_approved' ) ;
#8 = PRODUCT ( '2d69', '2d69', '', ( #24 ) ) ;
#9 = CC_DESIGN_PERSON_AND_ORGANIZATION_ASSIGNMENT ( #47, #108, ( #62 ) ) ;
#10 = CARTESIAN_POINT ( 'NONE',  ( 0.000000000000000000, 0.000000000000000000, 0.000000000000000000 ) ) ;
#11 = DATE_AND_TIME ( #26, #243 ) ;
#12 = EDGE_CURVE ( 'NONE', #134, #68, #67, .T. ) ;
#13 = DATE_AND_TIME ( #51, #49 ) ;
#14 = VERTEX_POINT ( 'NONE', #110 ) ;
#15 = ADVANCED_FACE ( 'NONE', ( #188 ), #159, .T. ) ;
#16 = DATE_TIME_ROLE ( 'classification_date' ) ;
#17 = VERTEX_POINT ( 'NONE', #178 ) ;
#18 = ORIENTED_EDGE ( 'NONE', *, *, #149, .F. ) ;
#19 = FACE_OUTER_BOUND ( 'NONE', #50, .T. ) ;
#20 = DIRECTION ( 'NONE',  ( 0.000000000000000000, 0.000000000000000000, 1.000000000000000000 ) ) ;
#21 = PLANE ( 'NONE',  #3 ) ;
#22 = CARTESIAN_POINT ( 'NONE',  ( 0.000000000000000000, 0.000000000000000000, 2.000000000000000000 ) ) ;
#23 = DIRECTION ( 'NONE',  ( 1.000000000000000000, 0.000000000000000000, 0.000000000000000000 ) ) ;
#24 = MECHANICAL_CONTEXT ( 'NONE', #92, 'mechanical' ) ;
#25 = CIRCLE ( 'NONE', #189, 1.100000000000000089 ) ;
#26 = CALENDAR_DATE ( 2023, 13, 2 ) ;
#27 = ORGANIZATION ( 'NEURÈENÝ', 'NEURÈENÝ', '' ) ;
#28 = COORDINATED_UNIVERSAL_TIME_OFFSET ( 1, 0, .AHEAD. ) ;
#29 = DIRECTION ( 'NONE',  ( 0.000000000000000000, 0.000000000000000000, 1.000000000000000000 ) ) ;
#30 = APPLICATION_PROTOCOL_DEFINITION ( 'international standard', 'config_control_design', 1994, #92 ) ;
#31 = CC_DESIGN_PERSON_AND_ORGANIZATION_ASSIGNMENT ( #107, #85, ( #8 ) ) ;
#32 = DIRECTION ( 'NONE',  ( -0.000000000000000000, -0.000000000000000000, -1.000000000000000000 ) ) ;
#33 = SECURITY_CLASSIFICATION_LEVEL ( 'unclassified' ) ;
#34 = AXIS2_PLACEMENT_3D ( 'NONE', #138, #79, #221 ) ;
#35 = EDGE_CURVE ( 'NONE', #156, #70, #25, .T. ) ;
#36 = ORIENTED_EDGE ( 'NONE', *, *, #149, .T. ) ;
#37 = CLOSED_SHELL ( 'NONE', ( #109, #15, #162, #6, #230, #229, #142 ) ) ;
#38 = CARTESIAN_POINT ( 'NONE',  ( -1.100000000000000089, 0.000000000000000000, 315.0000000000000000 ) ) ;
#39 = DIRECTION ( 'NONE',  ( 0.000000000000000000, 0.000000000000000000, 1.000000000000000000 ) ) ;
#40 = CC_DESIGN_APPROVAL ( #247, ( #124 ) ) ;
#41 = DIRECTION ( 'NONE',  ( 0.000000000000000000, 0.000000000000000000, 1.000000000000000000 ) ) ;
#42 = DIRECTION ( 'NONE',  ( 1.000000000000000000, 0.000000000000000000, 0.000000000000000000 ) ) ;
#43 = DIRECTION ( 'NONE',  ( -0.000000000000000000, -0.000000000000000000, -1.000000000000000000 ) ) ;
#44 = PERSON_AND_ORGANIZATION ( #86, #27 ) ;
#45 = AXIS2_PLACEMENT_3D ( 'NONE', #102, #99, #98 ) ;
#46 = APPROVAL_ROLE ( '' ) ;
#47 = PERSON_AND_ORGANIZATION ( #86, #27 ) ;
#48 = CARTESIAN_POINT ( 'NONE',  ( 0.000000000000000000, 0.000000000000000000, 0.000000000000000000 ) ) ;
#49 = LOCAL_TIME ( 18, 5, 39.00000000000000000, #154 ) ;
#50 = EDGE_LOOP ( 'NONE', ( #72, #211 ) ) ;
#51 = CALENDAR_DATE ( 2023, 13, 2 ) ;
#52 = FACE_OUTER_BOUND ( 'NONE', #220, .T. ) ;
#53 = CIRCLE ( 'NONE', #57, 1.100000000000000089 ) ;
#54 = EDGE_CURVE ( 'NONE', #156, #174, #181, .T. ) ;
#55 = LINE ( 'NONE', #137, #182 ) ;
#56 = DIRECTION ( 'NONE',  ( 0.000000000000000000, 0.000000000000000000, 1.000000000000000000 ) ) ;
#57 = AXIS2_PLACEMENT_3D ( 'NONE', #223, #119, #23 ) ;
#58 = CARTESIAN_POINT ( 'NONE',  ( 0.000000000000000000, 0.000000000000000000, 2.000000000000000000 ) ) ;
#59 = CARTESIAN_POINT ( 'NONE',  ( -1.100000000000000089, 0.000000000000000000, 2.000000000000000000 ) ) ;
#60 = DIRECTION ( 'NONE',  ( -0.000000000000000000, -0.000000000000000000, -1.000000000000000000 ) ) ;
#61 = APPLICATION_PROTOCOL_DEFINITION ( 'international standard', 'config_control_design', 1994, #164 ) ;
#62 = PRODUCT_DEFINITION_FORMATION_WITH_SPECIFIED_SOURCE ( 'LIBOVOLNÝ', '', #8, .NOT_KNOWN. ) ;
#63 =( NAMED_UNIT ( * ) SI_UNIT ( $, .STERADIAN. ) SOLID_ANGLE_UNIT ( ) );
#64 = DATE_AND_TIME ( #231, #217 ) ;
#65 = PERSON_AND_ORGANIZATION_ROLE ( 'creator' ) ;
#66 = APPROVAL_STATUS ( 'not_yet_approved' ) ;
#67 = LINE ( 'NONE', #249, #135 ) ;
#68 = VERTEX_POINT ( 'NONE', #255 ) ;
#69 = CC_DESIGN_SECURITY_CLASSIFICATION ( #124, ( #62 ) ) ;
#70 = VERTEX_POINT ( 'NONE', #77 ) ;
#71 = UNCERTAINTY_MEASURE_WITH_UNIT (LENGTH_MEASURE( 1.000000000000000082E-05 ), #103, 'distance_accuracy_value', 'NONE');
#72 = ORIENTED_EDGE ( 'NONE', *, *, #35, .T. ) ;
#73 = EDGE_LOOP ( 'NONE', ( #18, #234, #232, #235 ) ) ;
#74 = EDGE_CURVE ( 'NONE', #134, #14, #203, .T. ) ;
#75 = EDGE_CURVE ( 'NONE', #114, #174, #78, .T. ) ;
#76 = DIRECTION ( 'NONE',  ( 1.000000000000000000, 0.000000000000000000, -0.000000000000000000 ) ) ;
#77 = CARTESIAN_POINT ( 'NONE',  ( 1.100000000000000089, 1.347111479062088503E-16, 315.0000000000000000 ) ) ;
#78 = CIRCLE ( 'NONE', #227, 1.100000000000000089 ) ;
#79 = DIRECTION ( 'NONE',  ( 0.000000000000000000, 0.000000000000000000, 1.000000000000000000 ) ) ;
#80 = CARTESIAN_POINT ( 'NONE',  ( 0.000000000000000000, 0.000000000000000000, 0.000000000000000000 ) ) ;
#81 = CARTESIAN_POINT ( 'NONE',  ( 0.000000000000000000, 0.000000000000000000, 315.0000000000000000 ) ) ;
#82 = APPROVAL ( #66, 'NEURÈENÝ' ) ;
#83 = AXIS2_PLACEMENT_3D ( 'NONE', #58, #39, #117 ) ;
#84 = FACE_OUTER_BOUND ( 'NONE', #175, .T. ) ;
#85 = PERSON_AND_ORGANIZATION_ROLE ( 'design_owner' ) ;
#86 = PERSON ( 'NEURÈENÝ', 'NEURÈENÝ', 'NEURÈENÝ', ('NEURÈENÝ'), ('NEURÈENÝ'), ('NEURÈENÝ') ) ;
#87 = CIRCLE ( 'NONE', #250, 2.000000000000000000 ) ;
#88 = APPROVAL_PERSON_ORGANIZATION ( #209, #247, #129 ) ;
#89 = PERSON_AND_ORGANIZATION_ROLE ( 'classification_officer' ) ;
#90 = EDGE_LOOP ( 'NONE', ( #152, #169, #193, #214 ) ) ;
#91 = PERSON_AND_ORGANIZATION ( #86, #27 ) ;
#92 = APPLICATION_CONTEXT ( 'configuration controlled 3d designs of mechanical parts and assemblies' ) ;
#93 = AXIS2_PLACEMENT_3D ( 'NONE', #48, #29, #228 ) ;
#94 = ORIENTED_EDGE ( 'NONE', *, *, #12, .F. ) ;
#95 = EDGE_LOOP ( 'NONE', ( #192, #155, #113, #94 ) ) ;
#96 = SHAPE_DEFINITION_REPRESENTATION ( #187, #194 ) ;
#97 = ORIENTED_EDGE ( 'NONE', *, *, #74, .T. ) ;
#98 = DIRECTION ( 'NONE',  ( -1.000000000000000000, 0.000000000000000000, 0.000000000000000000 ) ) ;
#99 = DIRECTION ( 'NONE',  ( -0.000000000000000000, -0.000000000000000000, -1.000000000000000000 ) ) ;
#100 = CARTESIAN_POINT ( 'NONE',  ( 0.000000000000000000, 0.000000000000000000, 2.000000000000000000 ) ) ;
#101 = DIRECTION ( 'NONE',  ( -0.000000000000000000, -0.000000000000000000, -1.000000000000000000 ) ) ;
#102 = CARTESIAN_POINT ( 'NONE',  ( 0.000000000000000000, 0.000000000000000000, 2.000000000000000000 ) ) ;
#103 =( LENGTH_UNIT ( ) NAMED_UNIT ( * ) SI_UNIT ( .MILLI., .METRE. ) );
#104 = AXIS2_PLACEMENT_3D ( 'NONE', #157, #239, #150 ) ;
#105 =( NAMED_UNIT ( * ) PLANE_ANGLE_UNIT ( ) SI_UNIT ( $, .RADIAN. ) );
#106 = DIRECTION ( 'NONE',  ( -1.000000000000000000, 0.000000000000000000, 0.000000000000000000 ) ) ;
#107 = PERSON_AND_ORGANIZATION ( #86, #27 ) ;
#108 = PERSON_AND_ORGANIZATION_ROLE ( 'creator' ) ;
#109 = ADVANCED_FACE ( 'NONE', ( #118 ), #176, .T. ) ;
#110 = CARTESIAN_POINT ( 'NONE',  ( 2.000000000000000000, 2.449293598294706414E-16, 2.000000000000000000 ) ) ;
#111 = DATE_AND_TIME ( #132, #238 ) ;
#112 = EDGE_LOOP ( 'NONE', ( #197, #128 ) ) ;
#113 = ORIENTED_EDGE ( 'NONE', *, *, #116, .T. ) ;
#114 = VERTEX_POINT ( 'NONE', #244 ) ;
#115 = CARTESIAN_POINT ( 'NONE',  ( 0.000000000000000000, 0.000000000000000000, 315.0000000000000000 ) ) ;
#116 = EDGE_CURVE ( 'NONE', #17, #68, #1, .T. ) ;
#117 = DIRECTION ( 'NONE',  ( 1.000000000000000000, 0.000000000000000000, 0.000000000000000000 ) ) ;
#118 = FACE_OUTER_BOUND ( 'NONE', #173, .T. ) ;
#119 = DIRECTION ( 'NONE',  ( 0.000000000000000000, 0.000000000000000000, 1.000000000000000000 ) ) ;
#120 = VECTOR ( 'NONE', #60, 1000.000000000000000 ) ;
#121 = EDGE_CURVE ( 'NONE', #174, #114, #133, .T. ) ;
#122 = DIRECTION ( 'NONE',  ( 1.000000000000000000, 0.000000000000000000, 0.000000000000000000 ) ) ;
#123 = DIRECTION ( 'NONE',  ( 1.000000000000000000, 0.000000000000000000, 0.000000000000000000 ) ) ;
#124 = SECURITY_CLASSIFICATION ( '', '', #33 ) ;
#125 = APPROVAL_DATE_TIME ( #64, #136 ) ;
#126 = CC_DESIGN_APPROVAL ( #136, ( #62 ) ) ;
#127 = PERSON_AND_ORGANIZATION_ROLE ( 'design_supplier' ) ;
#128 = ORIENTED_EDGE ( 'NONE', *, *, #75, .F. ) ;
#129 = APPROVAL_ROLE ( '' ) ;
#130 = ORIENTED_EDGE ( 'NONE', *, *, #75, .T. ) ;
#131 = CC_DESIGN_PERSON_AND_ORGANIZATION_ASSIGNMENT ( #191, #89, ( #124 ) ) ;
#132 = CALENDAR_DATE ( 2023, 13, 2 ) ;
#133 = CIRCLE ( 'NONE', #83, 1.100000000000000089 ) ;
#134 = VERTEX_POINT ( 'NONE', #200 ) ;
#135 = VECTOR ( 'NONE', #32, 1000.000000000000000 ) ;
#136 = APPROVAL ( #7, 'NEURÈENÝ' ) ;
#137 = CARTESIAN_POINT ( 'NONE',  ( 1.100000000000000089, 1.347111479062088503E-16, 315.0000000000000000 ) ) ;
#138 = CARTESIAN_POINT ( 'NONE',  ( 0.000000000000000000, 0.000000000000000000, 0.000000000000000000 ) ) ;
#139 = AXIS2_PLACEMENT_3D ( 'NONE', #10, #184, #123 ) ;
#140 = FACE_OUTER_BOUND ( 'NONE', #90, .T. ) ;
#141 = CARTESIAN_POINT ( 'NONE',  ( 0.000000000000000000, 0.000000000000000000, 2.000000000000000000 ) ) ;
#142 = ADVANCED_FACE ( 'NONE', ( #19 ), #21, .T. ) ;
#143 = FACE_OUTER_BOUND ( 'NONE', #73, .T. ) ;
#144 = COORDINATED_UNIVERSAL_TIME_OFFSET ( 1, 0, .AHEAD. ) ;
#145 = CALENDAR_DATE ( 2023, 13, 2 ) ;
#146 = AXIS2_PLACEMENT_3D ( 'NONE', #158, #43, #254 ) ;
#147 = DATE_TIME_ROLE ( 'creation_date' ) ;
#148 = EDGE_CURVE ( 'NONE', #14, #134, #87, .T. ) ;
#149 = EDGE_CURVE ( 'NONE', #70, #114, #55, .T. ) ;
#150 = DIRECTION ( 'NONE',  ( 1.000000000000000000, 0.000000000000000000, -0.000000000000000000 ) ) ;
#151 =( GEOMETRIC_REPRESENTATION_CONTEXT ( 3 ) GLOBAL_UNCERTAINTY_ASSIGNED_CONTEXT ( ( #71 ) ) GLOBAL_UNIT_ASSIGNED_CONTEXT ( ( #103, #105, #63 ) ) REPRESENTATION_CONTEXT ( 'NONE', 'WORKASPACE' ) );
#152 = ORIENTED_EDGE ( 'NONE', *, *, #210, .F. ) ;
#153 = MANIFOLD_SOLID_BREP ( 'Pøidat vysunutím3', #37 ) ;
#154 = COORDINATED_UNIVERSAL_TIME_OFFSET ( 1, 0, .AHEAD. ) ;
#155 = ORIENTED_EDGE ( 'NONE', *, *, #210, .T. ) ;
#156 = VERTEX_POINT ( 'NONE', #2 ) ;
#157 = CARTESIAN_POINT ( 'NONE',  ( 0.000000000000000000, 0.000000000000000000, 2.000000000000000000 ) ) ;
#158 = CARTESIAN_POINT ( 'NONE',  ( 0.000000000000000000, 0.000000000000000000, 315.0000000000000000 ) ) ;
#159 = CYLINDRICAL_SURFACE ( 'NONE', #45, 2.000000000000000000 ) ;
#160 = DIRECTION ( 'NONE',  ( 0.000000000000000000, 0.000000000000000000, 1.000000000000000000 ) ) ;
#161 = DIRECTION ( 'NONE',  ( -1.000000000000000000, 0.000000000000000000, 0.000000000000000000 ) ) ;
#162 = ADVANCED_FACE ( 'NONE', ( #140 ), #201, .T. ) ;
#163 = CARTESIAN_POINT ( 'NONE',  ( 2.000000000000000000, 2.449293598294706414E-16, 2.000000000000000000 ) ) ;
#164 = APPLICATION_CONTEXT ( 'configuration controlled 3d designs of mechanical parts and assemblies' ) ;
#165 = EDGE_CURVE ( 'NONE', #68, #17, #233, .T. ) ;
#166 = DIRECTION ( 'NONE',  ( -0.000000000000000000, -0.000000000000000000, -1.000000000000000000 ) ) ;
#167 = APPROVAL_DATE_TIME ( #11, #82 ) ;
#168 = AXIS2_PLACEMENT_3D ( 'NONE', #80, #4, #245 ) ;
#169 = ORIENTED_EDGE ( 'NONE', *, *, #74, .F. ) ;
#170 = VECTOR ( 'NONE', #199, 1000.000000000000000 ) ;
#171 = APPROVAL_PERSON_ORGANIZATION ( #204, #82, #186 ) ;
#172 = APPROVAL_STATUS ( 'not_yet_approved' ) ;
#173 = EDGE_LOOP ( 'NONE', ( #253, #36, #130, #252 ) ) ;
#174 = VERTEX_POINT ( 'NONE', #59 ) ;
#175 = EDGE_LOOP ( 'NONE', ( #212, #251 ) ) ;
#176 = CYLINDRICAL_SURFACE ( 'NONE', #146, 1.100000000000000089 ) ;
#177 = LOCAL_TIME ( 18, 5, 39.00000000000000000, #248 ) ;
#178 = CARTESIAN_POINT ( 'NONE',  ( 2.000000000000000000, 2.449293598294706414E-16, 0.000000000000000000 ) ) ;
#179 = DIRECTION ( 'NONE',  ( -0.000000000000000000, -0.000000000000000000, -1.000000000000000000 ) ) ;
#180 = CC_DESIGN_DATE_AND_TIME_ASSIGNMENT ( #207, #147, ( #237 ) ) ;
#181 = LINE ( 'NONE', #38, #170 ) ;
#182 = VECTOR ( 'NONE', #179, 1000.000000000000000 ) ;
#183 = DIRECTION ( 'NONE',  ( 0.000000000000000000, 0.000000000000000000, 1.000000000000000000 ) ) ;
#184 = DIRECTION ( 'NONE',  ( 0.000000000000000000, 0.000000000000000000, 1.000000000000000000 ) ) ;
#185 = PERSON_AND_ORGANIZATION ( #86, #27 ) ;
#186 = APPROVAL_ROLE ( '' ) ;
#187 = PRODUCT_DEFINITION_SHAPE ( 'NONE', 'NONE',  #237 ) ;
#188 = FACE_OUTER_BOUND ( 'NONE', #95, .T. ) ;
#189 = AXIS2_PLACEMENT_3D ( 'NONE', #115, #20, #122 ) ;
#190 = PRODUCT_RELATED_PRODUCT_CATEGORY ( 'detail', '', ( #8 ) ) ;
#191 = PERSON_AND_ORGANIZATION ( #86, #27 ) ;
#192 = ORIENTED_EDGE ( 'NONE', *, *, #148, .F. ) ;
#193 = ORIENTED_EDGE ( 'NONE', *, *, #12, .T. ) ;
#194 = ADVANCED_BREP_SHAPE_REPRESENTATION ( '2d69', ( #153, #139 ), #151 ) ;
#195 = ORIENTED_EDGE ( 'NONE', *, *, #148, .T. ) ;
#196 = CC_DESIGN_DATE_AND_TIME_ASSIGNMENT ( #13, #16, ( #124 ) ) ;
#197 = ORIENTED_EDGE ( 'NONE', *, *, #121, .F. ) ;
#198 = EDGE_CURVE ( 'NONE', #70, #156, #53, .T. ) ;
#199 = DIRECTION ( 'NONE',  ( -0.000000000000000000, -0.000000000000000000, -1.000000000000000000 ) ) ;
#200 = CARTESIAN_POINT ( 'NONE',  ( -2.000000000000000000, 0.000000000000000000, 2.000000000000000000 ) ) ;
#201 = CYLINDRICAL_SURFACE ( 'NONE', #215, 2.000000000000000000 ) ;
#202 = APPROVAL_PERSON_ORGANIZATION ( #185, #136, #46 ) ;
#203 = CIRCLE ( 'NONE', #241, 2.000000000000000000 ) ;
#204 = PERSON_AND_ORGANIZATION ( #86, #27 ) ;
#205 = CC_DESIGN_APPROVAL ( #82, ( #237 ) ) ;
#206 = CC_DESIGN_PERSON_AND_ORGANIZATION_ASSIGNMENT ( #44, #65, ( #237 ) ) ;
#207 = DATE_AND_TIME ( #145, #177 ) ;
#208 = DESIGN_CONTEXT ( 'detailed design', #164, 'design' ) ;
#209 = PERSON_AND_ORGANIZATION ( #86, #27 ) ;
#210 = EDGE_CURVE ( 'NONE', #14, #17, #5, .T. ) ;
#211 = ORIENTED_EDGE ( 'NONE', *, *, #198, .T. ) ;
#212 = ORIENTED_EDGE ( 'NONE', *, *, #165, .F. ) ;
#213 = COORDINATED_UNIVERSAL_TIME_OFFSET ( 1, 0, .AHEAD. ) ;
#214 = ORIENTED_EDGE ( 'NONE', *, *, #165, .T. ) ;
#215 = AXIS2_PLACEMENT_3D ( 'NONE', #22, #101, #161 ) ;
#216 = APPROVAL_DATE_TIME ( #111, #247 ) ;
#217 = LOCAL_TIME ( 18, 5, 39.00000000000000000, #28 ) ;
#218 = PLANE ( 'NONE',  #104 ) ;
#219 = CC_DESIGN_PERSON_AND_ORGANIZATION_ASSIGNMENT ( #91, #127, ( #62 ) ) ;
#220 = EDGE_LOOP ( 'NONE', ( #97, #195 ) ) ;
#221 = DIRECTION ( 'NONE',  ( 1.000000000000000000, 0.000000000000000000, 0.000000000000000000 ) ) ;
#222 = CARTESIAN_POINT ( 'NONE',  ( 0.000000000000000000, 0.000000000000000000, 2.000000000000000000 ) ) ;
#223 = CARTESIAN_POINT ( 'NONE',  ( 0.000000000000000000, 0.000000000000000000, 315.0000000000000000 ) ) ;
#224 = CYLINDRICAL_SURFACE ( 'NONE', #225, 1.100000000000000089 ) ;
#225 = AXIS2_PLACEMENT_3D ( 'NONE', #81, #166, #106 ) ;
#226 = PLANE ( 'NONE',  #93 ) ;
#227 = AXIS2_PLACEMENT_3D ( 'NONE', #222, #56, #42 ) ;
#228 = DIRECTION ( 'NONE',  ( 1.000000000000000000, 0.000000000000000000, -0.000000000000000000 ) ) ;
#229 = ADVANCED_FACE ( 'NONE', ( #143 ), #224, .T. ) ;
#230 = ADVANCED_FACE ( 'NONE', ( #84 ), #226, .F. ) ;
#231 = CALENDAR_DATE ( 2023, 13, 2 ) ;
#232 = ORIENTED_EDGE ( 'NONE', *, *, #54, .T. ) ;
#233 = CIRCLE ( 'NONE', #168, 2.000000000000000000 ) ;
#234 = ORIENTED_EDGE ( 'NONE', *, *, #35, .F. ) ;
#235 = ORIENTED_EDGE ( 'NONE', *, *, #121, .T. ) ;
#236 = FACE_BOUND ( 'NONE', #112, .T. ) ;
#237 = PRODUCT_DEFINITION ( 'NEZNÁMÝ', '', #62, #208 ) ;
#238 = LOCAL_TIME ( 18, 5, 39.00000000000000000, #213 ) ;
#239 = DIRECTION ( 'NONE',  ( 0.000000000000000000, 0.000000000000000000, 1.000000000000000000 ) ) ;
#240 = DIRECTION ( 'NONE',  ( 1.000000000000000000, 0.000000000000000000, 0.000000000000000000 ) ) ;
#241 = AXIS2_PLACEMENT_3D ( 'NONE', #141, #160, #242 ) ;
#242 = DIRECTION ( 'NONE',  ( 1.000000000000000000, 0.000000000000000000, 0.000000000000000000 ) ) ;
#243 = LOCAL_TIME ( 18, 5, 39.00000000000000000, #144 ) ;
#244 = CARTESIAN_POINT ( 'NONE',  ( 1.100000000000000089, 1.347111479062088503E-16, 2.000000000000000000 ) ) ;
#245 = DIRECTION ( 'NONE',  ( 1.000000000000000000, 0.000000000000000000, 0.000000000000000000 ) ) ;
#246 = CARTESIAN_POINT ( 'NONE',  ( 0.000000000000000000, 0.000000000000000000, 315.0000000000000000 ) ) ;
#247 = APPROVAL ( #172, 'NEURÈENÝ' ) ;
#248 = COORDINATED_UNIVERSAL_TIME_OFFSET ( 1, 0, .AHEAD. ) ;
#249 = CARTESIAN_POINT ( 'NONE',  ( -2.000000000000000000, 0.000000000000000000, 2.000000000000000000 ) ) ;
#250 = AXIS2_PLACEMENT_3D ( 'NONE', #100, #183, #240 ) ;
#251 = ORIENTED_EDGE ( 'NONE', *, *, #116, .F. ) ;
#252 = ORIENTED_EDGE ( 'NONE', *, *, #54, .F. ) ;
#253 = ORIENTED_EDGE ( 'NONE', *, *, #198, .F. ) ;
#254 = DIRECTION ( 'NONE',  ( -1.000000000000000000, 0.000000000000000000, 0.000000000000000000 ) ) ;
#255 = CARTESIAN_POINT ( 'NONE',  ( -2.000000000000000000, 0.000000000000000000, 0.000000000000000000 ) ) ;
ENDSEC;
END-ISO-10303-21;
