ISO-10303-21;
HEADER;
FILE_DESCRIPTION (( 'STEP AP203' ),
    '1' );
FILE_NAME ('6b9b.STEP',
    '2023-02-13T17:26:07',
    ( '' ),
    ( '' ),
    'SwSTEP 2.0',
    'SolidWorks 2019',
    '' );
FILE_SCHEMA (( 'CONFIG_CONTROL_DESIGN' ));
ENDSEC;

DATA;
#1 = FACE_OUTER_BOUND ( 'NONE', #9, .T. ) ;
#2 = DATE_AND_TIME ( #98, #22 ) ;
#3 = CC_DESIGN_PERSON_AND_ORGANIZATION_ASSIGNMENT ( #229, #125, ( #107 ) ) ;
#4 = COORDINATED_UNIVERSAL_TIME_OFFSET ( 1, 0, .AHEAD. ) ;
#5 = AXIS2_PLACEMENT_3D ( 'NONE', #81, #42, #162 ) ;
#6 = APPROVAL_STATUS ( 'not_yet_approved' ) ;
#7 = EDGE_CURVE ( 'NONE', #55, #14, #227, .T. ) ;
#8 = AXIS2_PLACEMENT_3D ( 'NONE', #29, #241, #103 ) ;
#9 = EDGE_LOOP ( 'NONE', ( #250, #110, #129, #202 ) ) ;
#10 = FACE_OUTER_BOUND ( 'NONE', #239, .T. ) ;
#11 = CARTESIAN_POINT ( 'NONE',  ( 0.000000000000000000, 0.000000000000000000, 1.500000000000000000 ) ) ;
#12 = DIRECTION ( 'NONE',  ( 0.000000000000000000, 0.000000000000000000, 1.000000000000000000 ) ) ;
#13 = DIRECTION ( 'NONE',  ( -0.000000000000000000, -0.000000000000000000, -1.000000000000000000 ) ) ;
#14 = VERTEX_POINT ( 'NONE', #53 ) ;
#15 = VERTEX_POINT ( 'NONE', #172 ) ;
#16 = PERSON_AND_ORGANIZATION_ROLE ( 'design_owner' ) ;
#17 = DIRECTION ( 'NONE',  ( 0.000000000000000000, 0.000000000000000000, 1.000000000000000000 ) ) ;
#18 = APPROVAL_STATUS ( 'not_yet_approved' ) ;
#19 = ORIENTED_EDGE ( 'NONE', *, *, #201, .T. ) ;
#20 = PERSON_AND_ORGANIZATION_ROLE ( 'creator' ) ;
#21 = FACE_OUTER_BOUND ( 'NONE', #158, .T. ) ;
#22 = LOCAL_TIME ( 18, 26, 7.000000000000000000, #255 ) ;
#23 = APPROVAL_DATE_TIME ( #142, #66 ) ;
#24 = APPROVAL_ROLE ( '' ) ;
#25 = DIRECTION ( 'NONE',  ( 1.000000000000000000, 0.000000000000000000, 0.000000000000000000 ) ) ;
#26 = AXIS2_PLACEMENT_3D ( 'NONE', #11, #68, #54 ) ;
#27 = CYLINDRICAL_SURFACE ( 'NONE', #96, 1.500000000000000222 ) ;
#28 = FACE_OUTER_BOUND ( 'NONE', #213, .T. ) ;
#29 = CARTESIAN_POINT ( 'NONE',  ( 0.000000000000000000, 0.000000000000000000, 160.0000000000000000 ) ) ;
#30 = CARTESIAN_POINT ( 'NONE',  ( 0.6500000000000000222, 7.960204194457795477E-17, 160.0000000000000000 ) ) ;
#31 = SECURITY_CLASSIFICATION_LEVEL ( 'unclassified' ) ;
#32 = APPROVAL_PERSON_ORGANIZATION ( #222, #238, #49 ) ;
#33 = DIRECTION ( 'NONE',  ( 0.000000000000000000, 0.000000000000000000, 1.000000000000000000 ) ) ;
#34 = CIRCLE ( 'NONE', #135, 0.6500000000000000222 ) ;
#35 = CARTESIAN_POINT ( 'NONE',  ( -0.6500000000000000222, 0.000000000000000000, 1.500000000000000000 ) ) ;
#36 = CIRCLE ( 'NONE', #236, 0.6500000000000000222 ) ;
#37 = AXIS2_PLACEMENT_3D ( 'NONE', #208, #207, #25 ) ;
#38 = CC_DESIGN_DATE_AND_TIME_ASSIGNMENT ( #126, #44, ( #170 ) ) ;
#39 = VERTEX_POINT ( 'NONE', #35 ) ;
#40 = AXIS2_PLACEMENT_3D ( 'NONE', #57, #160, #219 ) ;
#41 = DIRECTION ( 'NONE',  ( -0.000000000000000000, -0.000000000000000000, -1.000000000000000000 ) ) ;
#42 = DIRECTION ( 'NONE',  ( 0.000000000000000000, 0.000000000000000000, 1.000000000000000000 ) ) ;
#43 = APPROVAL ( #120, 'NEURÈENÝ' ) ;
#44 = DATE_TIME_ROLE ( 'classification_date' ) ;
#45 = CYLINDRICAL_SURFACE ( 'NONE', #83, 1.500000000000000222 ) ;
#46 = CARTESIAN_POINT ( 'NONE',  ( -0.6500000000000000222, 0.000000000000000000, 160.0000000000000000 ) ) ;
#47 = PERSON_AND_ORGANIZATION_ROLE ( 'classification_officer' ) ;
#48 = DIRECTION ( 'NONE',  ( -1.000000000000000000, 0.000000000000000000, 0.000000000000000000 ) ) ;
#49 = APPROVAL_ROLE ( '' ) ;
#50 = DIRECTION ( 'NONE',  ( 1.000000000000000000, 0.000000000000000000, 0.000000000000000000 ) ) ;
#51 = ADVANCED_BREP_SHAPE_REPRESENTATION ( '6b9b', ( #168, #5 ), #92 ) ;
#52 = AXIS2_PLACEMENT_3D ( 'NONE', #63, #203, #50 ) ;
#53 = CARTESIAN_POINT ( 'NONE',  ( -1.500000000000000222, 0.000000000000000000, 0.000000000000000000 ) ) ;
#54 = DIRECTION ( 'NONE',  ( 1.000000000000000000, 0.000000000000000000, 0.000000000000000000 ) ) ;
#55 = VERTEX_POINT ( 'NONE', #127 ) ;
#56 = ORIENTED_EDGE ( 'NONE', *, *, #204, .T. ) ;
#57 = CARTESIAN_POINT ( 'NONE',  ( 0.000000000000000000, 0.000000000000000000, 160.0000000000000000 ) ) ;
#58 = CALENDAR_DATE ( 2023, 13, 2 ) ;
#59 = DIRECTION ( 'NONE',  ( -1.000000000000000000, 0.000000000000000000, 0.000000000000000000 ) ) ;
#60 = ORIENTED_EDGE ( 'NONE', *, *, #192, .F. ) ;
#61 = AXIS2_PLACEMENT_3D ( 'NONE', #141, #17, #94 ) ;
#62 = APPROVAL_PERSON_ORGANIZATION ( #205, #66, #79 ) ;
#63 = CARTESIAN_POINT ( 'NONE',  ( 0.000000000000000000, 0.000000000000000000, 1.500000000000000000 ) ) ;
#64 = EDGE_CURVE ( 'NONE', #156, #87, #101, .T. ) ;
#65 = CARTESIAN_POINT ( 'NONE',  ( -1.500000000000000222, 0.000000000000000000, 1.500000000000000000 ) ) ;
#66 = APPROVAL ( #18, 'NEURÈENÝ' ) ;
#67 = CC_DESIGN_APPROVAL ( #43, ( #107 ) ) ;
#68 = DIRECTION ( 'NONE',  ( 0.000000000000000000, 0.000000000000000000, 1.000000000000000000 ) ) ;
#69 = EDGE_CURVE ( 'NONE', #15, #39, #34, .T. ) ;
#70 = ORIENTED_EDGE ( 'NONE', *, *, #69, .T. ) ;
#71 = PLANE ( 'NONE',  #91 ) ;
#72 =( LENGTH_UNIT ( ) NAMED_UNIT ( * ) SI_UNIT ( .MILLI., .METRE. ) );
#73 = DIRECTION ( 'NONE',  ( 1.000000000000000000, 0.000000000000000000, 0.000000000000000000 ) ) ;
#74 = ORIENTED_EDGE ( 'NONE', *, *, #105, .T. ) ;
#75 = PERSON_AND_ORGANIZATION ( #152, #196 ) ;
#76 = EDGE_LOOP ( 'NONE', ( #19, #194 ) ) ;
#77 = APPROVAL_DATE_TIME ( #144, #238 ) ;
#78 = UNCERTAINTY_MEASURE_WITH_UNIT (LENGTH_MEASURE( 1.000000000000000082E-05 ), #72, 'distance_accuracy_value', 'NONE');
#79 = APPROVAL_ROLE ( '' ) ;
#80 = CARTESIAN_POINT ( 'NONE',  ( 0.000000000000000000, 0.000000000000000000, 1.500000000000000000 ) ) ;
#81 = CARTESIAN_POINT ( 'NONE',  ( 0.000000000000000000, 0.000000000000000000, 0.000000000000000000 ) ) ;
#82 = CYLINDRICAL_SURFACE ( 'NONE', #220, 0.6500000000000000222 ) ;
#83 = AXIS2_PLACEMENT_3D ( 'NONE', #118, #41, #48 ) ;
#84 = CALENDAR_DATE ( 2023, 13, 2 ) ;
#85 = EDGE_CURVE ( 'NONE', #181, #39, #176, .T. ) ;
#86 = ADVANCED_FACE ( 'NONE', ( #240 ), #27, .T. ) ;
#87 = VERTEX_POINT ( 'NONE', #184 ) ;
#88 = AXIS2_PLACEMENT_3D ( 'NONE', #190, #13, #154 ) ;
#89 = ORIENTED_EDGE ( 'NONE', *, *, #85, .F. ) ;
#90 = VECTOR ( 'NONE', #167, 1000.000000000000000 ) ;
#91 = AXIS2_PLACEMENT_3D ( 'NONE', #112, #12, #248 ) ;
#92 =( GEOMETRIC_REPRESENTATION_CONTEXT ( 3 ) GLOBAL_UNCERTAINTY_ASSIGNED_CONTEXT ( ( #78 ) ) GLOBAL_UNIT_ASSIGNED_CONTEXT ( ( #72, #185, #187 ) ) REPRESENTATION_CONTEXT ( 'NONE', 'WORKASPACE' ) );
#93 = ORIENTED_EDGE ( 'NONE', *, *, #173, .F. ) ;
#94 = DIRECTION ( 'NONE',  ( 1.000000000000000000, 0.000000000000000000, -0.000000000000000000 ) ) ;
#95 = DATE_AND_TIME ( #84, #179 ) ;
#96 = AXIS2_PLACEMENT_3D ( 'NONE', #80, #157, #59 ) ;
#97 = CALENDAR_DATE ( 2023, 13, 2 ) ;
#98 = CALENDAR_DATE ( 2023, 13, 2 ) ;
#99 = PRODUCT_DEFINITION_SHAPE ( 'NONE', 'NONE',  #165 ) ;
#100 = LINE ( 'NONE', #245, #178 ) ;
#101 = CIRCLE ( 'NONE', #26, 1.500000000000000222 ) ;
#102 = DIRECTION ( 'NONE',  ( 1.000000000000000000, 0.000000000000000000, 0.000000000000000000 ) ) ;
#103 = DIRECTION ( 'NONE',  ( 1.000000000000000000, 0.000000000000000000, 0.000000000000000000 ) ) ;
#104 = LINE ( 'NONE', #65, #195 ) ;
#105 = EDGE_CURVE ( 'NONE', #198, #15, #119, .T. ) ;
#106 = PERSON_AND_ORGANIZATION ( #152, #196 ) ;
#107 = PRODUCT_DEFINITION_FORMATION_WITH_SPECIFIED_SOURCE ( 'LIBOVOLNÝ', '', #155, .NOT_KNOWN. ) ;
#108 = ORIENTED_EDGE ( 'NONE', *, *, #192, .T. ) ;
#109 = CC_DESIGN_PERSON_AND_ORGANIZATION_ASSIGNMENT ( #199, #20, ( #165 ) ) ;
#110 = ORIENTED_EDGE ( 'NONE', *, *, #201, .F. ) ;
#111 = ORIENTED_EDGE ( 'NONE', *, *, #7, .F. ) ;
#112 = CARTESIAN_POINT ( 'NONE',  ( 0.000000000000000000, 0.000000000000000000, 1.500000000000000000 ) ) ;
#113 = EDGE_LOOP ( 'NONE', ( #60, #149, #153, #183 ) ) ;
#114 = ADVANCED_FACE ( 'NONE', ( #161 ), #45, .T. ) ;
#115 = EDGE_CURVE ( 'NONE', #198, #181, #231, .T. ) ;
#116 = DIRECTION ( 'NONE',  ( 1.000000000000000000, 0.000000000000000000, 0.000000000000000000 ) ) ;
#117 = PLANE ( 'NONE',  #40 ) ;
#118 = CARTESIAN_POINT ( 'NONE',  ( 0.000000000000000000, 0.000000000000000000, 1.500000000000000000 ) ) ;
#119 = LINE ( 'NONE', #225, #252 ) ;
#120 = APPROVAL_STATUS ( 'not_yet_approved' ) ;
#121 = PLANE ( 'NONE',  #61 ) ;
#122 = ORIENTED_EDGE ( 'NONE', *, *, #69, .F. ) ;
#123 = COORDINATED_UNIVERSAL_TIME_OFFSET ( 1, 0, .AHEAD. ) ;
#124 = CALENDAR_DATE ( 2023, 13, 2 ) ;
#125 = PERSON_AND_ORGANIZATION_ROLE ( 'creator' ) ;
#126 = DATE_AND_TIME ( #58, #136 ) ;
#127 = CARTESIAN_POINT ( 'NONE',  ( 1.500000000000000222, 1.836970198721030181E-16, 0.000000000000000000 ) ) ;
#128 = CARTESIAN_POINT ( 'NONE',  ( -1.500000000000000222, 0.000000000000000000, 1.500000000000000000 ) ) ;
#129 = ORIENTED_EDGE ( 'NONE', *, *, #85, .T. ) ;
#130 = APPROVAL_PERSON_ORGANIZATION ( #226, #43, #24 ) ;
#131 = PERSON_AND_ORGANIZATION_ROLE ( 'design_supplier' ) ;
#132 = EDGE_LOOP ( 'NONE', ( #171, #215, #56, #216 ) ) ;
#133 = PRODUCT_RELATED_PRODUCT_CATEGORY ( 'detail', '', ( #155 ) ) ;
#134 = ORIENTED_EDGE ( 'NONE', *, *, #115, .F. ) ;
#135 = AXIS2_PLACEMENT_3D ( 'NONE', #212, #33, #150 ) ;
#136 = LOCAL_TIME ( 18, 26, 7.000000000000000000, #4 ) ;
#137 = DIRECTION ( 'NONE',  ( -1.000000000000000000, 0.000000000000000000, 0.000000000000000000 ) ) ;
#138 = CIRCLE ( 'NONE', #8, 0.6500000000000000222 ) ;
#139 = CARTESIAN_POINT ( 'NONE',  ( -0.6500000000000000222, 0.000000000000000000, 160.0000000000000000 ) ) ;
#140 = ADVANCED_FACE ( 'NONE', ( #21 ), #243, .T. ) ;
#141 = CARTESIAN_POINT ( 'NONE',  ( 0.000000000000000000, 0.000000000000000000, 0.000000000000000000 ) ) ;
#142 = DATE_AND_TIME ( #97, #214 ) ;
#143 = COORDINATED_UNIVERSAL_TIME_OFFSET ( 1, 0, .AHEAD. ) ;
#144 = DATE_AND_TIME ( #124, #210 ) ;
#145 = APPROVAL_DATE_TIME ( #95, #43 ) ;
#146 = DIRECTION ( 'NONE',  ( -0.000000000000000000, -0.000000000000000000, -1.000000000000000000 ) ) ;
#147 = AXIS2_PLACEMENT_3D ( 'NONE', #237, #217, #116 ) ;
#148 = APPLICATION_CONTEXT ( 'configuration controlled 3d designs of mechanical parts and assemblies' ) ;
#149 = ORIENTED_EDGE ( 'NONE', *, *, #209, .T. ) ;
#150 = DIRECTION ( 'NONE',  ( 1.000000000000000000, 0.000000000000000000, 0.000000000000000000 ) ) ;
#151 = AXIS2_PLACEMENT_3D ( 'NONE', #246, #233, #73 ) ;
#152 = PERSON ( 'NEURÈENÝ', 'NEURÈENÝ', 'NEURÈENÝ', ('NEURÈENÝ'), ('NEURÈENÝ'), ('NEURÈENÝ') ) ;
#153 = ORIENTED_EDGE ( 'NONE', *, *, #7, .T. ) ;
#154 = DIRECTION ( 'NONE',  ( -1.000000000000000000, 0.000000000000000000, 0.000000000000000000 ) ) ;
#155 = PRODUCT ( '6b9b', '6b9b', '', ( #200 ) ) ;
#156 = VERTEX_POINT ( 'NONE', #128 ) ;
#157 = DIRECTION ( 'NONE',  ( -0.000000000000000000, -0.000000000000000000, -1.000000000000000000 ) ) ;
#158 = EDGE_LOOP ( 'NONE', ( #134, #74, #70, #89 ) ) ;
#159 = APPLICATION_PROTOCOL_DEFINITION ( 'international standard', 'config_control_design', 1994, #169 ) ;
#160 = DIRECTION ( 'NONE',  ( 0.000000000000000000, 0.000000000000000000, 1.000000000000000000 ) ) ;
#161 = FACE_OUTER_BOUND ( 'NONE', #113, .T. ) ;
#162 = DIRECTION ( 'NONE',  ( 1.000000000000000000, 0.000000000000000000, 0.000000000000000000 ) ) ;
#163 = DIRECTION ( 'NONE',  ( -0.000000000000000000, -0.000000000000000000, -1.000000000000000000 ) ) ;
#164 = APPLICATION_PROTOCOL_DEFINITION ( 'international standard', 'config_control_design', 1994, #148 ) ;
#165 = PRODUCT_DEFINITION ( 'NEZNÁMÝ', '', #107, #174 ) ;
#166 = CARTESIAN_POINT ( 'NONE',  ( 0.000000000000000000, 0.000000000000000000, 160.0000000000000000 ) ) ;
#167 = DIRECTION ( 'NONE',  ( -0.000000000000000000, -0.000000000000000000, -1.000000000000000000 ) ) ;
#168 = MANIFOLD_SOLID_BREP ( 'Pøidat vysunutím3', #177 ) ;
#169 = APPLICATION_CONTEXT ( 'configuration controlled 3d designs of mechanical parts and assemblies' ) ;
#170 = SECURITY_CLASSIFICATION ( '', '', #31 ) ;
#171 = ORIENTED_EDGE ( 'NONE', *, *, #209, .F. ) ;
#172 = CARTESIAN_POINT ( 'NONE',  ( 0.6500000000000000222, 7.960204194457795477E-17, 1.500000000000000000 ) ) ;
#173 = EDGE_CURVE ( 'NONE', #39, #15, #36, .T. ) ;
#174 = DESIGN_CONTEXT ( 'detailed design', #148, 'design' ) ;
#175 = ORIENTED_EDGE ( 'NONE', *, *, #64, .T. ) ;
#176 = LINE ( 'NONE', #139, #90 ) ;
#177 = CLOSED_SHELL ( 'NONE', ( #140, #114, #86, #249, #211, #224, #218 ) ) ;
#178 = VECTOR ( 'NONE', #146, 1000.000000000000000 ) ;
#179 = LOCAL_TIME ( 18, 26, 7.000000000000000000, #230 ) ;
#180 = CC_DESIGN_PERSON_AND_ORGANIZATION_ASSIGNMENT ( #75, #16, ( #155 ) ) ;
#181 = VERTEX_POINT ( 'NONE', #46 ) ;
#182 = FACE_BOUND ( 'NONE', #251, .T. ) ;
#183 = ORIENTED_EDGE ( 'NONE', *, *, #204, .F. ) ;
#184 = CARTESIAN_POINT ( 'NONE',  ( 1.500000000000000222, 1.836970198721030181E-16, 1.500000000000000000 ) ) ;
#185 =( NAMED_UNIT ( * ) PLANE_ANGLE_UNIT ( ) SI_UNIT ( $, .RADIAN. ) );
#186 = CC_DESIGN_PERSON_AND_ORGANIZATION_ASSIGNMENT ( #189, #131, ( #107 ) ) ;
#187 =( NAMED_UNIT ( * ) SI_UNIT ( $, .STERADIAN. ) SOLID_ANGLE_UNIT ( ) );
#188 = CC_DESIGN_SECURITY_CLASSIFICATION ( #170, ( #107 ) ) ;
#189 = PERSON_AND_ORGANIZATION ( #152, #196 ) ;
#190 = CARTESIAN_POINT ( 'NONE',  ( 0.000000000000000000, 0.000000000000000000, 160.0000000000000000 ) ) ;
#191 = DIRECTION ( 'NONE',  ( -0.000000000000000000, -0.000000000000000000, -1.000000000000000000 ) ) ;
#192 = EDGE_CURVE ( 'NONE', #87, #156, #253, .T. ) ;
#193 = CC_DESIGN_PERSON_AND_ORGANIZATION_ASSIGNMENT ( #106, #47, ( #170 ) ) ;
#194 = ORIENTED_EDGE ( 'NONE', *, *, #115, .T. ) ;
#195 = VECTOR ( 'NONE', #191, 1000.000000000000000 ) ;
#196 = ORGANIZATION ( 'NEURÈENÝ', 'NEURÈENÝ', '' ) ;
#197 = EDGE_CURVE ( 'NONE', #14, #55, #232, .T. ) ;
#198 = VERTEX_POINT ( 'NONE', #30 ) ;
#199 = PERSON_AND_ORGANIZATION ( #152, #196 ) ;
#200 = MECHANICAL_CONTEXT ( 'NONE', #169, 'mechanical' ) ;
#201 = EDGE_CURVE ( 'NONE', #181, #198, #138, .T. ) ;
#202 = ORIENTED_EDGE ( 'NONE', *, *, #173, .T. ) ;
#203 = DIRECTION ( 'NONE',  ( 0.000000000000000000, 0.000000000000000000, 1.000000000000000000 ) ) ;
#204 = EDGE_CURVE ( 'NONE', #156, #14, #104, .T. ) ;
#205 = PERSON_AND_ORGANIZATION ( #152, #196 ) ;
#206 = CARTESIAN_POINT ( 'NONE',  ( 0.000000000000000000, 0.000000000000000000, 1.500000000000000000 ) ) ;
#207 = DIRECTION ( 'NONE',  ( 0.000000000000000000, 0.000000000000000000, 1.000000000000000000 ) ) ;
#208 = CARTESIAN_POINT ( 'NONE',  ( 0.000000000000000000, 0.000000000000000000, 0.000000000000000000 ) ) ;
#209 = EDGE_CURVE ( 'NONE', #87, #55, #100, .T. ) ;
#210 = LOCAL_TIME ( 18, 26, 7.000000000000000000, #143 ) ;
#211 = ADVANCED_FACE ( 'NONE', ( #28 ), #121, .F. ) ;
#212 = CARTESIAN_POINT ( 'NONE',  ( 0.000000000000000000, 0.000000000000000000, 1.500000000000000000 ) ) ;
#213 = EDGE_LOOP ( 'NONE', ( #234, #111 ) ) ;
#214 = LOCAL_TIME ( 18, 26, 7.000000000000000000, #123 ) ;
#215 = ORIENTED_EDGE ( 'NONE', *, *, #64, .F. ) ;
#216 = ORIENTED_EDGE ( 'NONE', *, *, #197, .T. ) ;
#217 = DIRECTION ( 'NONE',  ( 0.000000000000000000, 0.000000000000000000, 1.000000000000000000 ) ) ;
#218 = ADVANCED_FACE ( 'NONE', ( #221 ), #117, .T. ) ;
#219 = DIRECTION ( 'NONE',  ( 1.000000000000000000, 0.000000000000000000, -0.000000000000000000 ) ) ;
#220 = AXIS2_PLACEMENT_3D ( 'NONE', #166, #163, #137 ) ;
#221 = FACE_OUTER_BOUND ( 'NONE', #76, .T. ) ;
#222 = PERSON_AND_ORGANIZATION ( #152, #196 ) ;
#223 = DIRECTION ( 'NONE',  ( -0.000000000000000000, -0.000000000000000000, -1.000000000000000000 ) ) ;
#224 = ADVANCED_FACE ( 'NONE', ( #1 ), #82, .T. ) ;
#225 = CARTESIAN_POINT ( 'NONE',  ( 0.6500000000000000222, 7.960204194457795477E-17, 160.0000000000000000 ) ) ;
#226 = PERSON_AND_ORGANIZATION ( #152, #196 ) ;
#227 = CIRCLE ( 'NONE', #151, 1.500000000000000222 ) ;
#228 = CC_DESIGN_DATE_AND_TIME_ASSIGNMENT ( #2, #242, ( #165 ) ) ;
#229 = PERSON_AND_ORGANIZATION ( #152, #196 ) ;
#230 = COORDINATED_UNIVERSAL_TIME_OFFSET ( 1, 0, .AHEAD. ) ;
#231 = CIRCLE ( 'NONE', #147, 0.6500000000000000222 ) ;
#232 = CIRCLE ( 'NONE', #37, 1.500000000000000222 ) ;
#233 = DIRECTION ( 'NONE',  ( 0.000000000000000000, 0.000000000000000000, 1.000000000000000000 ) ) ;
#234 = ORIENTED_EDGE ( 'NONE', *, *, #197, .F. ) ;
#235 = CC_DESIGN_APPROVAL ( #66, ( #170 ) ) ;
#236 = AXIS2_PLACEMENT_3D ( 'NONE', #206, #244, #102 ) ;
#237 = CARTESIAN_POINT ( 'NONE',  ( 0.000000000000000000, 0.000000000000000000, 160.0000000000000000 ) ) ;
#238 = APPROVAL ( #6, 'NEURÈENÝ' ) ;
#239 = EDGE_LOOP ( 'NONE', ( #175, #108 ) ) ;
#240 = FACE_OUTER_BOUND ( 'NONE', #132, .T. ) ;
#241 = DIRECTION ( 'NONE',  ( 0.000000000000000000, 0.000000000000000000, 1.000000000000000000 ) ) ;
#242 = DATE_TIME_ROLE ( 'creation_date' ) ;
#243 = CYLINDRICAL_SURFACE ( 'NONE', #88, 0.6500000000000000222 ) ;
#244 = DIRECTION ( 'NONE',  ( 0.000000000000000000, 0.000000000000000000, 1.000000000000000000 ) ) ;
#245 = CARTESIAN_POINT ( 'NONE',  ( 1.500000000000000222, 1.836970198721030181E-16, 1.500000000000000000 ) ) ;
#246 = CARTESIAN_POINT ( 'NONE',  ( 0.000000000000000000, 0.000000000000000000, 0.000000000000000000 ) ) ;
#247 = CC_DESIGN_APPROVAL ( #238, ( #165 ) ) ;
#248 = DIRECTION ( 'NONE',  ( 1.000000000000000000, 0.000000000000000000, -0.000000000000000000 ) ) ;
#249 = ADVANCED_FACE ( 'NONE', ( #182, #10 ), #71, .T. ) ;
#250 = ORIENTED_EDGE ( 'NONE', *, *, #105, .F. ) ;
#251 = EDGE_LOOP ( 'NONE', ( #93, #122 ) ) ;
#252 = VECTOR ( 'NONE', #223, 1000.000000000000000 ) ;
#253 = CIRCLE ( 'NONE', #52, 1.500000000000000222 ) ;
#254 = SHAPE_DEFINITION_REPRESENTATION ( #99, #51 ) ;
#255 = COORDINATED_UNIVERSAL_TIME_OFFSET ( 1, 0, .AHEAD. ) ;
ENDSEC;
END-ISO-10303-21;
