ISO-10303-21;
HEADER;
FILE_DESCRIPTION (( 'STEP AP203' ),
    '1' );
FILE_NAME ('1bff.STEP',
    '2023-02-13T13:08:48',
    ( '' ),
    ( '' ),
    'SwSTEP 2.0',
    'SolidWorks 2019',
    '' );
FILE_SCHEMA (( 'CONFIG_CONTROL_DESIGN' ));
ENDSEC;

DATA;
#1 =( GEOMETRIC_REPRESENTATION_CONTEXT ( 3 ) GLOBAL_UNCERTAINTY_ASSIGNED_CONTEXT ( ( #221 ) ) GLOBAL_UNIT_ASSIGNED_CONTEXT ( ( #102, #41, #123 ) ) REPRESENTATION_CONTEXT ( 'NONE', 'WORKASPACE' ) );
#2 = DIRECTION ( 'NONE',  ( -1.000000000000000000, 0.000000000000000000, 0.000000000000000000 ) ) ;
#3 = DIRECTION ( 'NONE',  ( 1.000000000000000000, 0.000000000000000000, 0.000000000000000000 ) ) ;
#4 = ORIENTED_EDGE ( 'NONE', *, *, #242, .F. ) ;
#5 = PERSON_AND_ORGANIZATION ( #12, #71 ) ;
#6 = FACE_OUTER_BOUND ( 'NONE', #10, .T. ) ;
#7 = EDGE_LOOP ( 'NONE', ( #50, #243, #86, #54 ) ) ;
#8 = DIRECTION ( 'NONE',  ( 0.000000000000000000, 0.000000000000000000, 1.000000000000000000 ) ) ;
#9 = EDGE_LOOP ( 'NONE', ( #145, #162 ) ) ;
#10 = EDGE_LOOP ( 'NONE', ( #109, #181, #127, #29 ) ) ;
#11 = CARTESIAN_POINT ( 'NONE',  ( -8.000000000000000000, 0.000000000000000000, 0.000000000000000000 ) ) ;
#12 = PERSON ( 'NEURÈENÝ', 'NEURÈENÝ', 'NEURÈENÝ', ('NEURÈENÝ'), ('NEURÈENÝ'), ('NEURÈENÝ') ) ;
#13 = DATE_AND_TIME ( #186, #39 ) ;
#14 = CARTESIAN_POINT ( 'NONE',  ( 0.000000000000000000, 0.000000000000000000, 0.000000000000000000 ) ) ;
#15 = SHAPE_DEFINITION_REPRESENTATION ( #245, #66 ) ;
#16 = DIRECTION ( 'NONE',  ( 0.000000000000000000, 0.000000000000000000, 1.000000000000000000 ) ) ;
#17 = CIRCLE ( 'NONE', #197, 8.000000000000000000 ) ;
#18 = CIRCLE ( 'NONE', #222, 8.000000000000000000 ) ;
#19 = FACE_OUTER_BOUND ( 'NONE', #7, .T. ) ;
#20 = CC_DESIGN_APPROVAL ( #196, ( #124 ) ) ;
#21 = ADVANCED_FACE ( 'NONE', ( #158 ), #240, .T. ) ;
#22 = ADVANCED_FACE ( 'NONE', ( #6 ), #40, .T. ) ;
#23 = ORIENTED_EDGE ( 'NONE', *, *, #78, .F. ) ;
#24 = AXIS2_PLACEMENT_3D ( 'NONE', #28, #8, #161 ) ;
#25 = VERTEX_POINT ( 'NONE', #56 ) ;
#26 = EDGE_LOOP ( 'NONE', ( #88, #131, #218, #146 ) ) ;
#27 = EDGE_CURVE ( 'NONE', #74, #182, #18, .T. ) ;
#28 = CARTESIAN_POINT ( 'NONE',  ( 0.000000000000000000, 0.000000000000000000, 0.000000000000000000 ) ) ;
#29 = ORIENTED_EDGE ( 'NONE', *, *, #53, .T. ) ;
#30 = PERSON_AND_ORGANIZATION ( #12, #71 ) ;
#31 = DIRECTION ( 'NONE',  ( 0.000000000000000000, 0.000000000000000000, 1.000000000000000000 ) ) ;
#32 = CIRCLE ( 'NONE', #205, 5.000000000000000888 ) ;
#33 = CC_DESIGN_DATE_AND_TIME_ASSIGNMENT ( #166, #208, ( #183 ) ) ;
#34 = DIRECTION ( 'NONE',  ( -0.000000000000000000, -0.000000000000000000, -1.000000000000000000 ) ) ;
#35 = APPROVAL_DATE_TIME ( #13, #219 ) ;
#36 = DIRECTION ( 'NONE',  ( 0.000000000000000000, 0.000000000000000000, 1.000000000000000000 ) ) ;
#37 = DIRECTION ( 'NONE',  ( 1.000000000000000000, 0.000000000000000000, -0.000000000000000000 ) ) ;
#38 = AXIS2_PLACEMENT_3D ( 'NONE', #226, #135, #209 ) ;
#39 = LOCAL_TIME ( 14, 8, 48.00000000000000000, #134 ) ;
#40 = CYLINDRICAL_SURFACE ( 'NONE', #130, 8.000000000000000000 ) ;
#41 =( NAMED_UNIT ( * ) PLANE_ANGLE_UNIT ( ) SI_UNIT ( $, .RADIAN. ) );
#42 = EDGE_CURVE ( 'NONE', #179, #128, #171, .T. ) ;
#43 = CYLINDRICAL_SURFACE ( 'NONE', #105, 5.000000000000000888 ) ;
#44 = VECTOR ( 'NONE', #34, 1000.000000000000000 ) ;
#45 = CIRCLE ( 'NONE', #206, 8.000000000000000000 ) ;
#46 = APPLICATION_PROTOCOL_DEFINITION ( 'international standard', 'config_control_design', 1994, #214 ) ;
#47 = EDGE_CURVE ( 'NONE', #160, #179, #89, .T. ) ;
#48 = CARTESIAN_POINT ( 'NONE',  ( 0.000000000000000000, 0.000000000000000000, 6.500000000000000000 ) ) ;
#49 = MANIFOLD_SOLID_BREP ( 'Pøidat vysunutím3', #111 ) ;
#50 = ORIENTED_EDGE ( 'NONE', *, *, #47, .F. ) ;
#51 = PRODUCT_DEFINITION_FORMATION_WITH_SPECIFIED_SOURCE ( 'LIBOVOLNÝ', '', #108, .NOT_KNOWN. ) ;
#52 = CIRCLE ( 'NONE', #192, 8.000000000000000000 ) ;
#53 = EDGE_CURVE ( 'NONE', #106, #25, #52, .T. ) ;
#54 = ORIENTED_EDGE ( 'NONE', *, *, #42, .F. ) ;
#55 = CALENDAR_DATE ( 2023, 13, 2 ) ;
#56 = CARTESIAN_POINT ( 'NONE',  ( 8.000000000000000000, 9.797174393178823685E-16, 0.000000000000000000 ) ) ;
#57 = APPROVAL_ROLE ( '' ) ;
#58 = APPROVAL_PERSON_ORGANIZATION ( #184, #219, #57 ) ;
#59 = SECURITY_CLASSIFICATION_LEVEL ( 'unclassified' ) ;
#60 = DIRECTION ( 'NONE',  ( 0.000000000000000000, 0.000000000000000000, 1.000000000000000000 ) ) ;
#61 = DATE_AND_TIME ( #228, #65 ) ;
#62 = AXIS2_PLACEMENT_3D ( 'NONE', #150, #16, #210 ) ;
#63 = CARTESIAN_POINT ( 'NONE',  ( 5.000000000000000888, 6.123233995736766282E-16, 6.500000000000000000 ) ) ;
#64 = DIRECTION ( 'NONE',  ( 1.000000000000000000, 0.000000000000000000, 0.000000000000000000 ) ) ;
#65 = LOCAL_TIME ( 14, 8, 48.00000000000000000, #90 ) ;
#66 = ADVANCED_BREP_SHAPE_REPRESENTATION ( '1bff', ( #49, #24 ), #1 ) ;
#67 = APPLICATION_PROTOCOL_DEFINITION ( 'international standard', 'config_control_design', 1994, #172 ) ;
#68 = EDGE_CURVE ( 'NONE', #179, #160, #84, .T. ) ;
#69 = ORIENTED_EDGE ( 'NONE', *, *, #242, .T. ) ;
#70 = APPROVAL_STATUS ( 'not_yet_approved' ) ;
#71 = ORGANIZATION ( 'NEURÈENÝ', 'NEURÈENÝ', '' ) ;
#72 = ORIENTED_EDGE ( 'NONE', *, *, #248, .F. ) ;
#73 = PERSON_AND_ORGANIZATION_ROLE ( 'design_supplier' ) ;
#74 = VERTEX_POINT ( 'NONE', #121 ) ;
#75 = DIRECTION ( 'NONE',  ( 0.000000000000000000, 0.000000000000000000, 1.000000000000000000 ) ) ;
#76 = APPROVAL_ROLE ( '' ) ;
#77 = CARTESIAN_POINT ( 'NONE',  ( 5.000000000000000888, 6.123233995736766282E-16, 630.0000000000000000 ) ) ;
#78 = EDGE_CURVE ( 'NONE', #128, #202, #234, .T. ) ;
#79 = APPROVAL_DATE_TIME ( #212, #196 ) ;
#80 = FACE_BOUND ( 'NONE', #244, .T. ) ;
#81 = DIRECTION ( 'NONE',  ( 1.000000000000000000, 0.000000000000000000, -0.000000000000000000 ) ) ;
#82 = AXIS2_PLACEMENT_3D ( 'NONE', #233, #174, #81 ) ;
#83 = ADVANCED_FACE ( 'NONE', ( #231 ), #185, .F. ) ;
#84 = CIRCLE ( 'NONE', #38, 5.000000000000000888 ) ;
#85 = DIRECTION ( 'NONE',  ( -0.000000000000000000, -0.000000000000000000, -1.000000000000000000 ) ) ;
#86 = ORIENTED_EDGE ( 'NONE', *, *, #122, .T. ) ;
#87 = PERSON_AND_ORGANIZATION ( #12, #71 ) ;
#88 = ORIENTED_EDGE ( 'NONE', *, *, #217, .F. ) ;
#89 = CIRCLE ( 'NONE', #62, 5.000000000000000888 ) ;
#90 = COORDINATED_UNIVERSAL_TIME_OFFSET ( 1, 0, .AHEAD. ) ;
#91 = ORIENTED_EDGE ( 'NONE', *, *, #122, .F. ) ;
#92 = DATE_AND_TIME ( #116, #156 ) ;
#93 = EDGE_CURVE ( 'NONE', #74, #106, #190, .T. ) ;
#94 = DIRECTION ( 'NONE',  ( -0.000000000000000000, -0.000000000000000000, -1.000000000000000000 ) ) ;
#95 = CYLINDRICAL_SURFACE ( 'NONE', #211, 5.000000000000000888 ) ;
#96 = FACE_OUTER_BOUND ( 'NONE', #9, .T. ) ;
#97 = CC_DESIGN_PERSON_AND_ORGANIZATION_ASSIGNMENT ( #114, #120, ( #51 ) ) ;
#98 = CARTESIAN_POINT ( 'NONE',  ( 0.000000000000000000, 0.000000000000000000, 6.500000000000000000 ) ) ;
#99 = CARTESIAN_POINT ( 'NONE',  ( 0.000000000000000000, 0.000000000000000000, 6.500000000000000000 ) ) ;
#100 = CARTESIAN_POINT ( 'NONE',  ( 5.000000000000000888, 6.123233995736766282E-16, 630.0000000000000000 ) ) ;
#101 = CC_DESIGN_APPROVAL ( #219, ( #183 ) ) ;
#102 =( LENGTH_UNIT ( ) NAMED_UNIT ( * ) SI_UNIT ( .MILLI., .METRE. ) );
#103 = DIRECTION ( 'NONE',  ( -0.000000000000000000, -0.000000000000000000, -1.000000000000000000 ) ) ;
#104 = VECTOR ( 'NONE', #151, 1000.000000000000000 ) ;
#105 = AXIS2_PLACEMENT_3D ( 'NONE', #198, #85, #2 ) ;
#106 = VERTEX_POINT ( 'NONE', #11 ) ;
#107 = ORIENTED_EDGE ( 'NONE', *, *, #53, .F. ) ;
#108 = PRODUCT ( '1bff', '1bff', '', ( #239 ) ) ;
#109 = ORIENTED_EDGE ( 'NONE', *, *, #230, .F. ) ;
#110 = ORIENTED_EDGE ( 'NONE', *, *, #248, .T. ) ;
#111 = CLOSED_SHELL ( 'NONE', ( #143, #21, #22, #159, #83, #224, #140 ) ) ;
#112 = CALENDAR_DATE ( 2023, 13, 2 ) ;
#113 = DIRECTION ( 'NONE',  ( 0.000000000000000000, 0.000000000000000000, 1.000000000000000000 ) ) ;
#114 = PERSON_AND_ORGANIZATION ( #12, #71 ) ;
#115 = CARTESIAN_POINT ( 'NONE',  ( -5.000000000000000888, 0.000000000000000000, 6.500000000000000000 ) ) ;
#116 = CALENDAR_DATE ( 2023, 13, 2 ) ;
#117 = CARTESIAN_POINT ( 'NONE',  ( -8.000000000000000000, 0.000000000000000000, 6.500000000000000000 ) ) ;
#118 = DIRECTION ( 'NONE',  ( 1.000000000000000000, 0.000000000000000000, 0.000000000000000000 ) ) ;
#119 = VECTOR ( 'NONE', #103, 1000.000000000000000 ) ;
#120 = PERSON_AND_ORGANIZATION_ROLE ( 'creator' ) ;
#121 = CARTESIAN_POINT ( 'NONE',  ( -8.000000000000000000, 0.000000000000000000, 6.500000000000000000 ) ) ;
#122 = EDGE_CURVE ( 'NONE', #202, #128, #32, .T. ) ;
#123 =( NAMED_UNIT ( * ) SI_UNIT ( $, .STERADIAN. ) SOLID_ANGLE_UNIT ( ) );
#124 = PRODUCT_DEFINITION ( 'NEZNÁMÝ', '', #51, #204 ) ;
#125 = CARTESIAN_POINT ( 'NONE',  ( 0.000000000000000000, 0.000000000000000000, 0.000000000000000000 ) ) ;
#126 = AXIS2_PLACEMENT_3D ( 'NONE', #213, #36, #37 ) ;
#127 = ORIENTED_EDGE ( 'NONE', *, *, #93, .T. ) ;
#128 = VERTEX_POINT ( 'NONE', #115 ) ;
#129 = EDGE_LOOP ( 'NONE', ( #72, #223, #69, #142 ) ) ;
#130 = AXIS2_PLACEMENT_3D ( 'NONE', #98, #94, #154 ) ;
#131 = ORIENTED_EDGE ( 'NONE', *, *, #68, .F. ) ;
#132 = PERSON_AND_ORGANIZATION_ROLE ( 'classification_officer' ) ;
#133 = DIRECTION ( 'NONE',  ( 0.000000000000000000, 0.000000000000000000, 1.000000000000000000 ) ) ;
#134 = COORDINATED_UNIVERSAL_TIME_OFFSET ( 1, 0, .AHEAD. ) ;
#135 = DIRECTION ( 'NONE',  ( 0.000000000000000000, 0.000000000000000000, 1.000000000000000000 ) ) ;
#136 = COORDINATED_UNIVERSAL_TIME_OFFSET ( 1, 0, .AHEAD. ) ;
#137 = CARTESIAN_POINT ( 'NONE',  ( 0.000000000000000000, 0.000000000000000000, 630.0000000000000000 ) ) ;
#138 = APPROVAL_DATE_TIME ( #61, #255 ) ;
#139 = DIRECTION ( 'NONE',  ( 1.000000000000000000, 0.000000000000000000, 0.000000000000000000 ) ) ;
#140 = ADVANCED_FACE ( 'NONE', ( #96 ), #194, .T. ) ;
#141 = AXIS2_PLACEMENT_3D ( 'NONE', #254, #60, #188 ) ;
#142 = ORIENTED_EDGE ( 'NONE', *, *, #93, .F. ) ;
#143 = ADVANCED_FACE ( 'NONE', ( #19 ), #95, .T. ) ;
#144 = LOCAL_TIME ( 14, 8, 48.00000000000000000, #147 ) ;
#145 = ORIENTED_EDGE ( 'NONE', *, *, #68, .T. ) ;
#146 = ORIENTED_EDGE ( 'NONE', *, *, #78, .T. ) ;
#147 = COORDINATED_UNIVERSAL_TIME_OFFSET ( 1, 0, .AHEAD. ) ;
#148 = CARTESIAN_POINT ( 'NONE',  ( 0.000000000000000000, 0.000000000000000000, 6.500000000000000000 ) ) ;
#149 = LOCAL_TIME ( 14, 8, 48.00000000000000000, #168 ) ;
#150 = CARTESIAN_POINT ( 'NONE',  ( 0.000000000000000000, 0.000000000000000000, 630.0000000000000000 ) ) ;
#151 = DIRECTION ( 'NONE',  ( -0.000000000000000000, -0.000000000000000000, -1.000000000000000000 ) ) ;
#152 = PERSON_AND_ORGANIZATION_ROLE ( 'creator' ) ;
#153 = PLANE ( 'NONE',  #82 ) ;
#154 = DIRECTION ( 'NONE',  ( -1.000000000000000000, 0.000000000000000000, 0.000000000000000000 ) ) ;
#155 = FACE_OUTER_BOUND ( 'NONE', #26, .T. ) ;
#156 = LOCAL_TIME ( 14, 8, 48.00000000000000000, #136 ) ;
#157 = LINE ( 'NONE', #175, #215 ) ;
#158 = FACE_OUTER_BOUND ( 'NONE', #129, .T. ) ;
#159 = ADVANCED_FACE ( 'NONE', ( #80, #252 ), #153, .T. ) ;
#160 = VERTEX_POINT ( 'NONE', #77 ) ;
#161 = DIRECTION ( 'NONE',  ( 1.000000000000000000, 0.000000000000000000, 0.000000000000000000 ) ) ;
#162 = ORIENTED_EDGE ( 'NONE', *, *, #47, .T. ) ;
#163 = AXIS2_PLACEMENT_3D ( 'NONE', #48, #201, #180 ) ;
#164 = PERSON_AND_ORGANIZATION ( #12, #71 ) ;
#165 = ORIENTED_EDGE ( 'NONE', *, *, #27, .T. ) ;
#166 = DATE_AND_TIME ( #112, #144 ) ;
#167 = DIRECTION ( 'NONE',  ( 1.000000000000000000, 0.000000000000000000, 0.000000000000000000 ) ) ;
#168 = COORDINATED_UNIVERSAL_TIME_OFFSET ( 1, 0, .AHEAD. ) ;
#169 = DIRECTION ( 'NONE',  ( -0.000000000000000000, -0.000000000000000000, -1.000000000000000000 ) ) ;
#170 = APPROVAL_PERSON_ORGANIZATION ( #87, #196, #203 ) ;
#171 = LINE ( 'NONE', #250, #104 ) ;
#172 = APPLICATION_CONTEXT ( 'configuration controlled 3d designs of mechanical parts and assemblies' ) ;
#173 = PRODUCT_RELATED_PRODUCT_CATEGORY ( 'detail', '', ( #108 ) ) ;
#174 = DIRECTION ( 'NONE',  ( 0.000000000000000000, 0.000000000000000000, 1.000000000000000000 ) ) ;
#175 = CARTESIAN_POINT ( 'NONE',  ( 8.000000000000000000, 9.797174393178823685E-16, 6.500000000000000000 ) ) ;
#176 = CARTESIAN_POINT ( 'NONE',  ( 8.000000000000000000, 9.797174393178823685E-16, 6.500000000000000000 ) ) ;
#177 = AXIS2_PLACEMENT_3D ( 'NONE', #207, #113, #118 ) ;
#178 = CC_DESIGN_PERSON_AND_ORGANIZATION_ASSIGNMENT ( #164, #73, ( #51 ) ) ;
#179 = VERTEX_POINT ( 'NONE', #229 ) ;
#180 = DIRECTION ( 'NONE',  ( -1.000000000000000000, 0.000000000000000000, 0.000000000000000000 ) ) ;
#181 = ORIENTED_EDGE ( 'NONE', *, *, #27, .F. ) ;
#182 = VERTEX_POINT ( 'NONE', #176 ) ;
#183 = SECURITY_CLASSIFICATION ( '', '', #59 ) ;
#184 = PERSON_AND_ORGANIZATION ( #12, #71 ) ;
#185 = PLANE ( 'NONE',  #126 ) ;
#186 = CALENDAR_DATE ( 2023, 13, 2 ) ;
#187 = CC_DESIGN_PERSON_AND_ORGANIZATION_ASSIGNMENT ( #30, #132, ( #183 ) ) ;
#188 = DIRECTION ( 'NONE',  ( 1.000000000000000000, 0.000000000000000000, -0.000000000000000000 ) ) ;
#189 = DATE_TIME_ROLE ( 'creation_date' ) ;
#190 = LINE ( 'NONE', #117, #44 ) ;
#191 = CC_DESIGN_APPROVAL ( #255, ( #51 ) ) ;
#192 = AXIS2_PLACEMENT_3D ( 'NONE', #14, #31, #167 ) ;
#193 = DIRECTION ( 'NONE',  ( -1.000000000000000000, 0.000000000000000000, 0.000000000000000000 ) ) ;
#194 = PLANE ( 'NONE',  #141 ) ;
#195 = LINE ( 'NONE', #100, #119 ) ;
#196 = APPROVAL ( #70, 'NEURÈENÝ' ) ;
#197 = AXIS2_PLACEMENT_3D ( 'NONE', #125, #199, #3 ) ;
#198 = CARTESIAN_POINT ( 'NONE',  ( 0.000000000000000000, 0.000000000000000000, 630.0000000000000000 ) ) ;
#199 = DIRECTION ( 'NONE',  ( 0.000000000000000000, 0.000000000000000000, 1.000000000000000000 ) ) ;
#200 = CC_DESIGN_PERSON_AND_ORGANIZATION_ASSIGNMENT ( #251, #152, ( #124 ) ) ;
#201 = DIRECTION ( 'NONE',  ( -0.000000000000000000, -0.000000000000000000, -1.000000000000000000 ) ) ;
#202 = VERTEX_POINT ( 'NONE', #63 ) ;
#203 = APPROVAL_ROLE ( '' ) ;
#204 = DESIGN_CONTEXT ( 'detailed design', #214, 'design' ) ;
#205 = AXIS2_PLACEMENT_3D ( 'NONE', #99, #75, #253 ) ;
#206 = AXIS2_PLACEMENT_3D ( 'NONE', #216, #235, #64 ) ;
#207 = CARTESIAN_POINT ( 'NONE',  ( 0.000000000000000000, 0.000000000000000000, 6.500000000000000000 ) ) ;
#208 = DATE_TIME_ROLE ( 'classification_date' ) ;
#209 = DIRECTION ( 'NONE',  ( 1.000000000000000000, 0.000000000000000000, 0.000000000000000000 ) ) ;
#210 = DIRECTION ( 'NONE',  ( 1.000000000000000000, 0.000000000000000000, 0.000000000000000000 ) ) ;
#211 = AXIS2_PLACEMENT_3D ( 'NONE', #137, #169, #193 ) ;
#212 = DATE_AND_TIME ( #55, #149 ) ;
#213 = CARTESIAN_POINT ( 'NONE',  ( 0.000000000000000000, 0.000000000000000000, 0.000000000000000000 ) ) ;
#214 = APPLICATION_CONTEXT ( 'configuration controlled 3d designs of mechanical parts and assemblies' ) ;
#215 = VECTOR ( 'NONE', #238, 1000.000000000000000 ) ;
#216 = CARTESIAN_POINT ( 'NONE',  ( 0.000000000000000000, 0.000000000000000000, 6.500000000000000000 ) ) ;
#217 = EDGE_CURVE ( 'NONE', #160, #202, #195, .T. ) ;
#218 = ORIENTED_EDGE ( 'NONE', *, *, #42, .T. ) ;
#219 = APPROVAL ( #225, 'NEURÈENÝ' ) ;
#220 = EDGE_LOOP ( 'NONE', ( #165, #110 ) ) ;
#221 = UNCERTAINTY_MEASURE_WITH_UNIT (LENGTH_MEASURE( 1.000000000000000082E-05 ), #102, 'distance_accuracy_value', 'NONE');
#222 = AXIS2_PLACEMENT_3D ( 'NONE', #148, #133, #139 ) ;
#223 = ORIENTED_EDGE ( 'NONE', *, *, #230, .T. ) ;
#224 = ADVANCED_FACE ( 'NONE', ( #155 ), #43, .T. ) ;
#225 = APPROVAL_STATUS ( 'not_yet_approved' ) ;
#226 = CARTESIAN_POINT ( 'NONE',  ( 0.000000000000000000, 0.000000000000000000, 630.0000000000000000 ) ) ;
#227 = APPROVAL_PERSON_ORGANIZATION ( #232, #255, #76 ) ;
#228 = CALENDAR_DATE ( 2023, 13, 2 ) ;
#229 = CARTESIAN_POINT ( 'NONE',  ( -5.000000000000000888, 0.000000000000000000, 630.0000000000000000 ) ) ;
#230 = EDGE_CURVE ( 'NONE', #182, #25, #157, .T. ) ;
#231 = FACE_OUTER_BOUND ( 'NONE', #247, .T. ) ;
#232 = PERSON_AND_ORGANIZATION ( #12, #71 ) ;
#233 = CARTESIAN_POINT ( 'NONE',  ( 0.000000000000000000, 0.000000000000000000, 6.500000000000000000 ) ) ;
#234 = CIRCLE ( 'NONE', #177, 5.000000000000000888 ) ;
#235 = DIRECTION ( 'NONE',  ( 0.000000000000000000, 0.000000000000000000, 1.000000000000000000 ) ) ;
#236 = CC_DESIGN_PERSON_AND_ORGANIZATION_ASSIGNMENT ( #5, #246, ( #108 ) ) ;
#237 = CC_DESIGN_DATE_AND_TIME_ASSIGNMENT ( #92, #189, ( #124 ) ) ;
#238 = DIRECTION ( 'NONE',  ( -0.000000000000000000, -0.000000000000000000, -1.000000000000000000 ) ) ;
#239 = MECHANICAL_CONTEXT ( 'NONE', #172, 'mechanical' ) ;
#240 = CYLINDRICAL_SURFACE ( 'NONE', #163, 8.000000000000000000 ) ;
#241 = CC_DESIGN_SECURITY_CLASSIFICATION ( #183, ( #51 ) ) ;
#242 = EDGE_CURVE ( 'NONE', #25, #106, #17, .T. ) ;
#243 = ORIENTED_EDGE ( 'NONE', *, *, #217, .T. ) ;
#244 = EDGE_LOOP ( 'NONE', ( #23, #91 ) ) ;
#245 = PRODUCT_DEFINITION_SHAPE ( 'NONE', 'NONE',  #124 ) ;
#246 = PERSON_AND_ORGANIZATION_ROLE ( 'design_owner' ) ;
#247 = EDGE_LOOP ( 'NONE', ( #107, #4 ) ) ;
#248 = EDGE_CURVE ( 'NONE', #182, #74, #45, .T. ) ;
#249 = APPROVAL_STATUS ( 'not_yet_approved' ) ;
#250 = CARTESIAN_POINT ( 'NONE',  ( -5.000000000000000888, 0.000000000000000000, 630.0000000000000000 ) ) ;
#251 = PERSON_AND_ORGANIZATION ( #12, #71 ) ;
#252 = FACE_OUTER_BOUND ( 'NONE', #220, .T. ) ;
#253 = DIRECTION ( 'NONE',  ( 1.000000000000000000, 0.000000000000000000, 0.000000000000000000 ) ) ;
#254 = CARTESIAN_POINT ( 'NONE',  ( 0.000000000000000000, 0.000000000000000000, 630.0000000000000000 ) ) ;
#255 = APPROVAL ( #249, 'NEURÈENÝ' ) ;
ENDSEC;
END-ISO-10303-21;
