ISO-10303-21;
HEADER;
FILE_DESCRIPTION (( 'STEP AP203' ),
    '1' );
FILE_NAME ('2992.STEP',
    '2023-02-13T12:19:12',
    ( '' ),
    ( '' ),
    'SwSTEP 2.0',
    'SolidWorks 2019',
    '' );
FILE_SCHEMA (( 'CONFIG_CONTROL_DESIGN' ));
ENDSEC;

DATA;
#1 = COORDINATED_UNIVERSAL_TIME_OFFSET ( 1, 0, .AHEAD. ) ;
#2 = LINE ( 'NONE', #121, #120 ) ;
#3 = EDGE_LOOP ( 'NONE', ( #14, #96 ) ) ;
#4 = FACE_OUTER_BOUND ( 'NONE', #104, .T. ) ;
#5 = CARTESIAN_POINT ( 'NONE',  ( 0.000000000000000000, 0.000000000000000000, 6.500000000000000000 ) ) ;
#6 = VERTEX_POINT ( 'NONE', #51 ) ;
#7 = MECHANICAL_CONTEXT ( 'NONE', #222, 'mechanical' ) ;
#8 = VECTOR ( 'NONE', #255, 1000.000000000000000 ) ;
#9 = DIRECTION ( 'NONE',  ( -0.000000000000000000, -0.000000000000000000, -1.000000000000000000 ) ) ;
#10 = DIRECTION ( 'NONE',  ( -0.000000000000000000, -0.000000000000000000, -1.000000000000000000 ) ) ;
#11 = CLOSED_SHELL ( 'NONE', ( #80, #227, #58, #202, #83, #155, #127 ) ) ;
#12 = EDGE_CURVE ( 'NONE', #6, #62, #209, .T. ) ;
#13 = AXIS2_PLACEMENT_3D ( 'NONE', #95, #9, #137 ) ;
#14 = ORIENTED_EDGE ( 'NONE', *, *, #87, .F. ) ;
#15 = COORDINATED_UNIVERSAL_TIME_OFFSET ( 1, 0, .AHEAD. ) ;
#16 = COORDINATED_UNIVERSAL_TIME_OFFSET ( 1, 0, .AHEAD. ) ;
#17 = EDGE_LOOP ( 'NONE', ( #132, #244 ) ) ;
#18 = AXIS2_PLACEMENT_3D ( 'NONE', #152, #233, #175 ) ;
#19 = APPROVAL_DATE_TIME ( #72, #247 ) ;
#20 =( NAMED_UNIT ( * ) SI_UNIT ( $, .STERADIAN. ) SOLID_ANGLE_UNIT ( ) );
#21 = APPROVAL ( #254, 'NEURÈENÝ' ) ;
#22 = ORIENTED_EDGE ( 'NONE', *, *, #187, .T. ) ;
#23 = CARTESIAN_POINT ( 'NONE',  ( 5.500000000000000000, 6.735557395310442023E-16, 500.0000000000000000 ) ) ;
#24 = CARTESIAN_POINT ( 'NONE',  ( 0.000000000000000000, 0.000000000000000000, 0.000000000000000000 ) ) ;
#25 = CIRCLE ( 'NONE', #161, 5.500000000000000000 ) ;
#26 = LINE ( 'NONE', #60, #8 ) ;
#27 = ORIENTED_EDGE ( 'NONE', *, *, #87, .T. ) ;
#28 = DIRECTION ( 'NONE',  ( 0.000000000000000000, 0.000000000000000000, 1.000000000000000000 ) ) ;
#29 = PERSON ( 'NEURÈENÝ', 'NEURÈENÝ', 'NEURÈENÝ', ('NEURÈENÝ'), ('NEURÈENÝ'), ('NEURÈENÝ') ) ;
#30 = ORIENTED_EDGE ( 'NONE', *, *, #219, .F. ) ;
#31 = COORDINATED_UNIVERSAL_TIME_OFFSET ( 1, 0, .AHEAD. ) ;
#32 = CYLINDRICAL_SURFACE ( 'NONE', #13, 5.500000000000000000 ) ;
#33 = DIRECTION ( 'NONE',  ( 1.000000000000000000, 0.000000000000000000, 0.000000000000000000 ) ) ;
#34 = DIRECTION ( 'NONE',  ( -1.000000000000000000, 0.000000000000000000, 0.000000000000000000 ) ) ;
#35 = VERTEX_POINT ( 'NONE', #142 ) ;
#36 = APPROVAL_ROLE ( '' ) ;
#37 = DIRECTION ( 'NONE',  ( -0.000000000000000000, -0.000000000000000000, -1.000000000000000000 ) ) ;
#38 = CARTESIAN_POINT ( 'NONE',  ( 0.000000000000000000, 0.000000000000000000, 0.000000000000000000 ) ) ;
#39 = LOCAL_TIME ( 13, 19, 12.00000000000000000, #114 ) ;
#40 = DIRECTION ( 'NONE',  ( -1.000000000000000000, 0.000000000000000000, 0.000000000000000000 ) ) ;
#41 = EDGE_CURVE ( 'NONE', #177, #167, #211, .T. ) ;
#42 = APPLICATION_PROTOCOL_DEFINITION ( 'international standard', 'config_control_design', 1994, #235 ) ;
#43 = DIRECTION ( 'NONE',  ( 0.000000000000000000, 0.000000000000000000, 1.000000000000000000 ) ) ;
#44 = CALENDAR_DATE ( 2023, 13, 2 ) ;
#45 = PERSON_AND_ORGANIZATION ( #29, #216 ) ;
#46 =( NAMED_UNIT ( * ) PLANE_ANGLE_UNIT ( ) SI_UNIT ( $, .RADIAN. ) );
#47 = AXIS2_PLACEMENT_3D ( 'NONE', #38, #145, #217 ) ;
#48 = DATE_AND_TIME ( #157, #65 ) ;
#49 = EDGE_LOOP ( 'NONE', ( #173, #190 ) ) ;
#50 = APPLICATION_PROTOCOL_DEFINITION ( 'international standard', 'config_control_design', 1994, #222 ) ;
#51 = CARTESIAN_POINT ( 'NONE',  ( 5.500000000000000000, 6.735557395310442023E-16, 500.0000000000000000 ) ) ;
#52 = CARTESIAN_POINT ( 'NONE',  ( -5.500000000000000000, 0.000000000000000000, 500.0000000000000000 ) ) ;
#53 = DIRECTION ( 'NONE',  ( 0.000000000000000000, 0.000000000000000000, 1.000000000000000000 ) ) ;
#54 = CYLINDRICAL_SURFACE ( 'NONE', #68, 9.000000000000000000 ) ;
#55 = AXIS2_PLACEMENT_3D ( 'NONE', #159, #113, #40 ) ;
#56 = FACE_OUTER_BOUND ( 'NONE', #49, .T. ) ;
#57 = PERSON_AND_ORGANIZATION ( #29, #216 ) ;
#58 = ADVANCED_FACE ( 'NONE', ( #78 ), #54, .T. ) ;
#59 = PLANE ( 'NONE',  #143 ) ;
#60 = CARTESIAN_POINT ( 'NONE',  ( -5.500000000000000000, 0.000000000000000000, 500.0000000000000000 ) ) ;
#61 = PERSON_AND_ORGANIZATION ( #29, #216 ) ;
#62 = VERTEX_POINT ( 'NONE', #52 ) ;
#63 = EDGE_LOOP ( 'NONE', ( #91, #75 ) ) ;
#64 =( LENGTH_UNIT ( ) NAMED_UNIT ( * ) SI_UNIT ( .MILLI., .METRE. ) );
#65 = LOCAL_TIME ( 13, 19, 12.00000000000000000, #1 ) ;
#66 = CC_DESIGN_APPROVAL ( #176, ( #174 ) ) ;
#67 = APPROVAL_STATUS ( 'not_yet_approved' ) ;
#68 = AXIS2_PLACEMENT_3D ( 'NONE', #5, #10, #34 ) ;
#69 = EDGE_LOOP ( 'NONE', ( #228, #232, #118, #150 ) ) ;
#70 = APPROVAL_DATE_TIME ( #195, #21 ) ;
#71 = FACE_BOUND ( 'NONE', #3, .T. ) ;
#72 = DATE_AND_TIME ( #168, #212 ) ;
#73 = CC_DESIGN_PERSON_AND_ORGANIZATION_ASSIGNMENT ( #108, #172, ( #221 ) ) ;
#74 = PERSON_AND_ORGANIZATION ( #29, #216 ) ;
#75 = ORIENTED_EDGE ( 'NONE', *, *, #234, .F. ) ;
#76 = DIRECTION ( 'NONE',  ( -0.000000000000000000, -0.000000000000000000, -1.000000000000000000 ) ) ;
#77 = ADVANCED_BREP_SHAPE_REPRESENTATION ( '2992', ( #138, #47 ), #115 ) ;
#78 = FACE_OUTER_BOUND ( 'NONE', #179, .T. ) ;
#79 = DATE_TIME_ROLE ( 'classification_date' ) ;
#80 = ADVANCED_FACE ( 'NONE', ( #246 ), #98, .T. ) ;
#81 = CARTESIAN_POINT ( 'NONE',  ( 9.000000000000000000, 1.102182119232617517E-15, 0.000000000000000000 ) ) ;
#82 = ORIENTED_EDGE ( 'NONE', *, *, #102, .F. ) ;
#83 = ADVANCED_FACE ( 'NONE', ( #144 ), #194, .F. ) ;
#84 = ORIENTED_EDGE ( 'NONE', *, *, #234, .T. ) ;
#85 = AXIS2_PLACEMENT_3D ( 'NONE', #218, #28, #206 ) ;
#86 = FACE_OUTER_BOUND ( 'NONE', #90, .T. ) ;
#87 = EDGE_CURVE ( 'NONE', #242, #239, #25, .T. ) ;
#88 = DIRECTION ( 'NONE',  ( -0.000000000000000000, -0.000000000000000000, -1.000000000000000000 ) ) ;
#89 = VECTOR ( 'NONE', #37, 1000.000000000000000 ) ;
#90 = EDGE_LOOP ( 'NONE', ( #197, #103, #84, #231 ) ) ;
#91 = ORIENTED_EDGE ( 'NONE', *, *, #130, .F. ) ;
#92 = DIRECTION ( 'NONE',  ( 1.000000000000000000, 0.000000000000000000, 0.000000000000000000 ) ) ;
#93 = CARTESIAN_POINT ( 'NONE',  ( 0.000000000000000000, 0.000000000000000000, 500.0000000000000000 ) ) ;
#94 = CC_DESIGN_DATE_AND_TIME_ASSIGNMENT ( #48, #79, ( #174 ) ) ;
#95 = CARTESIAN_POINT ( 'NONE',  ( 0.000000000000000000, 0.000000000000000000, 500.0000000000000000 ) ) ;
#96 = ORIENTED_EDGE ( 'NONE', *, *, #107, .F. ) ;
#97 = DIRECTION ( 'NONE',  ( 0.000000000000000000, 0.000000000000000000, 1.000000000000000000 ) ) ;
#98 = CYLINDRICAL_SURFACE ( 'NONE', #55, 5.500000000000000000 ) ;
#99 = AXIS2_PLACEMENT_3D ( 'NONE', #245, #249, #160 ) ;
#100 = CC_DESIGN_APPROVAL ( #21, ( #236 ) ) ;
#101 = DIRECTION ( 'NONE',  ( 1.000000000000000000, 0.000000000000000000, -0.000000000000000000 ) ) ;
#102 = EDGE_CURVE ( 'NONE', #167, #177, #116, .T. ) ;
#103 = ORIENTED_EDGE ( 'NONE', *, *, #240, .T. ) ;
#104 = EDGE_LOOP ( 'NONE', ( #30, #186, #133, #27 ) ) ;
#105 = DESIGN_CONTEXT ( 'detailed design', #235, 'design' ) ;
#106 = CIRCLE ( 'NONE', #18, 9.000000000000000000 ) ;
#107 = EDGE_CURVE ( 'NONE', #239, #242, #215, .T. ) ;
#108 = PERSON_AND_ORGANIZATION ( #29, #216 ) ;
#109 = CARTESIAN_POINT ( 'NONE',  ( -9.000000000000000000, 0.000000000000000000, 6.500000000000000000 ) ) ;
#110 = SHAPE_DEFINITION_REPRESENTATION ( #184, #77 ) ;
#111 = CALENDAR_DATE ( 2023, 13, 2 ) ;
#112 = CARTESIAN_POINT ( 'NONE',  ( 9.000000000000000000, 1.102182119232617517E-15, 6.500000000000000000 ) ) ;
#113 = DIRECTION ( 'NONE',  ( -0.000000000000000000, -0.000000000000000000, -1.000000000000000000 ) ) ;
#114 = COORDINATED_UNIVERSAL_TIME_OFFSET ( 1, 0, .AHEAD. ) ;
#115 =( GEOMETRIC_REPRESENTATION_CONTEXT ( 3 ) GLOBAL_UNCERTAINTY_ASSIGNED_CONTEXT ( ( #146 ) ) GLOBAL_UNIT_ASSIGNED_CONTEXT ( ( #64, #46, #20 ) ) REPRESENTATION_CONTEXT ( 'NONE', 'WORKASPACE' ) );
#116 = CIRCLE ( 'NONE', #183, 9.000000000000000000 ) ;
#117 = APPROVAL_DATE_TIME ( #129, #176 ) ;
#118 = ORIENTED_EDGE ( 'NONE', *, *, #107, .T. ) ;
#119 = LINE ( 'NONE', #23, #162 ) ;
#120 = VECTOR ( 'NONE', #76, 1000.000000000000000 ) ;
#121 = CARTESIAN_POINT ( 'NONE',  ( 9.000000000000000000, 1.102182119232617517E-15, 6.500000000000000000 ) ) ;
#122 = APPROVAL_PERSON_ORGANIZATION ( #57, #247, #149 ) ;
#123 = DIRECTION ( 'NONE',  ( 0.000000000000000000, 0.000000000000000000, 1.000000000000000000 ) ) ;
#124 = DIRECTION ( 'NONE',  ( 0.000000000000000000, 0.000000000000000000, 1.000000000000000000 ) ) ;
#125 = DIRECTION ( 'NONE',  ( 0.000000000000000000, 0.000000000000000000, 1.000000000000000000 ) ) ;
#126 = DIRECTION ( 'NONE',  ( 0.000000000000000000, 0.000000000000000000, 1.000000000000000000 ) ) ;
#127 = ADVANCED_FACE ( 'NONE', ( #141 ), #220, .T. ) ;
#128 = CC_DESIGN_PERSON_AND_ORGANIZATION_ASSIGNMENT ( #61, #189, ( #236 ) ) ;
#129 = DATE_AND_TIME ( #44, #131 ) ;
#130 = EDGE_CURVE ( 'NONE', #35, #164, #169, .T. ) ;
#131 = LOCAL_TIME ( 13, 19, 12.00000000000000000, #31 ) ;
#132 = ORIENTED_EDGE ( 'NONE', *, *, #151, .T. ) ;
#133 = ORIENTED_EDGE ( 'NONE', *, *, #251, .T. ) ;
#134 = PERSON_AND_ORGANIZATION ( #29, #216 ) ;
#135 = ORIENTED_EDGE ( 'NONE', *, *, #130, .T. ) ;
#136 = AXIS2_PLACEMENT_3D ( 'NONE', #208, #125, #101 ) ;
#137 = DIRECTION ( 'NONE',  ( -1.000000000000000000, 0.000000000000000000, 0.000000000000000000 ) ) ;
#138 = MANIFOLD_SOLID_BREP ( 'Pøidat vysunutím3', #11 ) ;
#139 = ORIENTED_EDGE ( 'NONE', *, *, #240, .F. ) ;
#140 = APPROVAL_PERSON_ORGANIZATION ( #191, #21, #213 ) ;
#141 = FACE_OUTER_BOUND ( 'NONE', #17, .T. ) ;
#142 = CARTESIAN_POINT ( 'NONE',  ( -9.000000000000000000, 0.000000000000000000, 0.000000000000000000 ) ) ;
#143 = AXIS2_PLACEMENT_3D ( 'NONE', #230, #43, #241 ) ;
#144 = FACE_OUTER_BOUND ( 'NONE', #63, .T. ) ;
#145 = DIRECTION ( 'NONE',  ( 0.000000000000000000, 0.000000000000000000, 1.000000000000000000 ) ) ;
#146 = UNCERTAINTY_MEASURE_WITH_UNIT (LENGTH_MEASURE( 1.000000000000000082E-05 ), #64, 'distance_accuracy_value', 'NONE');
#147 = CC_DESIGN_PERSON_AND_ORGANIZATION_ASSIGNMENT ( #45, #237, ( #248 ) ) ;
#148 = DATE_AND_TIME ( #166, #252 ) ;
#149 = APPROVAL_ROLE ( '' ) ;
#150 = ORIENTED_EDGE ( 'NONE', *, *, #251, .F. ) ;
#151 = EDGE_CURVE ( 'NONE', #62, #6, #243, .T. ) ;
#152 = CARTESIAN_POINT ( 'NONE',  ( 0.000000000000000000, 0.000000000000000000, 0.000000000000000000 ) ) ;
#153 = AXIS2_PLACEMENT_3D ( 'NONE', #171, #196, #178 ) ;
#154 = CYLINDRICAL_SURFACE ( 'NONE', #153, 9.000000000000000000 ) ;
#155 = ADVANCED_FACE ( 'NONE', ( #4 ), #32, .T. ) ;
#156 = CARTESIAN_POINT ( 'NONE',  ( -5.500000000000000000, 0.000000000000000000, 6.500000000000000000 ) ) ;
#157 = CALENDAR_DATE ( 2023, 13, 2 ) ;
#158 = DIRECTION ( 'NONE',  ( 1.000000000000000000, 0.000000000000000000, 0.000000000000000000 ) ) ;
#159 = CARTESIAN_POINT ( 'NONE',  ( 0.000000000000000000, 0.000000000000000000, 500.0000000000000000 ) ) ;
#160 = DIRECTION ( 'NONE',  ( 1.000000000000000000, 0.000000000000000000, 0.000000000000000000 ) ) ;
#161 = AXIS2_PLACEMENT_3D ( 'NONE', #182, #123, #92 ) ;
#162 = VECTOR ( 'NONE', #88, 1000.000000000000000 ) ;
#163 = DIRECTION ( 'NONE',  ( 1.000000000000000000, 0.000000000000000000, 0.000000000000000000 ) ) ;
#164 = VERTEX_POINT ( 'NONE', #81 ) ;
#165 = CC_DESIGN_PERSON_AND_ORGANIZATION_ASSIGNMENT ( #134, #200, ( #174 ) ) ;
#166 = CALENDAR_DATE ( 2023, 13, 2 ) ;
#167 = VERTEX_POINT ( 'NONE', #109 ) ;
#168 = CALENDAR_DATE ( 2023, 13, 2 ) ;
#169 = CIRCLE ( 'NONE', #85, 9.000000000000000000 ) ;
#170 = APPROVAL_PERSON_ORGANIZATION ( #238, #176, #36 ) ;
#171 = CARTESIAN_POINT ( 'NONE',  ( 0.000000000000000000, 0.000000000000000000, 6.500000000000000000 ) ) ;
#172 = PERSON_AND_ORGANIZATION_ROLE ( 'design_owner' ) ;
#173 = ORIENTED_EDGE ( 'NONE', *, *, #102, .T. ) ;
#174 = SECURITY_CLASSIFICATION ( '', '', #198 ) ;
#175 = DIRECTION ( 'NONE',  ( 1.000000000000000000, 0.000000000000000000, 0.000000000000000000 ) ) ;
#176 = APPROVAL ( #67, 'NEURÈENÝ' ) ;
#177 = VERTEX_POINT ( 'NONE', #112 ) ;
#178 = DIRECTION ( 'NONE',  ( -1.000000000000000000, 0.000000000000000000, 0.000000000000000000 ) ) ;
#179 = EDGE_LOOP ( 'NONE', ( #139, #82, #22, #135 ) ) ;
#180 = PRODUCT_RELATED_PRODUCT_CATEGORY ( 'detail', '', ( #221 ) ) ;
#181 = CARTESIAN_POINT ( 'NONE',  ( 0.000000000000000000, 0.000000000000000000, 500.0000000000000000 ) ) ;
#182 = CARTESIAN_POINT ( 'NONE',  ( 0.000000000000000000, 0.000000000000000000, 6.500000000000000000 ) ) ;
#183 = AXIS2_PLACEMENT_3D ( 'NONE', #223, #53, #158 ) ;
#184 = PRODUCT_DEFINITION_SHAPE ( 'NONE', 'NONE',  #236 ) ;
#185 = DIRECTION ( 'NONE',  ( 0.000000000000000000, 0.000000000000000000, 1.000000000000000000 ) ) ;
#186 = ORIENTED_EDGE ( 'NONE', *, *, #151, .F. ) ;
#187 = EDGE_CURVE ( 'NONE', #167, #35, #192, .T. ) ;
#188 = AXIS2_PLACEMENT_3D ( 'NONE', #181, #124, #225 ) ;
#189 = PERSON_AND_ORGANIZATION_ROLE ( 'creator' ) ;
#190 = ORIENTED_EDGE ( 'NONE', *, *, #41, .T. ) ;
#191 = PERSON_AND_ORGANIZATION ( #29, #216 ) ;
#192 = LINE ( 'NONE', #226, #89 ) ;
#193 = APPROVAL_STATUS ( 'not_yet_approved' ) ;
#194 = PLANE ( 'NONE',  #224 ) ;
#195 = DATE_AND_TIME ( #111, #39 ) ;
#196 = DIRECTION ( 'NONE',  ( -0.000000000000000000, -0.000000000000000000, -1.000000000000000000 ) ) ;
#197 = ORIENTED_EDGE ( 'NONE', *, *, #41, .F. ) ;
#198 = SECURITY_CLASSIFICATION_LEVEL ( 'unclassified' ) ;
#199 = AXIS2_PLACEMENT_3D ( 'NONE', #93, #97, #163 ) ;
#200 = PERSON_AND_ORGANIZATION_ROLE ( 'classification_officer' ) ;
#201 = CARTESIAN_POINT ( 'NONE',  ( 5.500000000000000000, 6.735557395310442023E-16, 6.500000000000000000 ) ) ;
#202 = ADVANCED_FACE ( 'NONE', ( #71, #56 ), #59, .T. ) ;
#203 = PERSON_AND_ORGANIZATION_ROLE ( 'creator' ) ;
#204 = CC_DESIGN_DATE_AND_TIME_ASSIGNMENT ( #148, #253, ( #236 ) ) ;
#205 = DIRECTION ( 'NONE',  ( 1.000000000000000000, 0.000000000000000000, -0.000000000000000000 ) ) ;
#206 = DIRECTION ( 'NONE',  ( 1.000000000000000000, 0.000000000000000000, 0.000000000000000000 ) ) ;
#207 = CARTESIAN_POINT ( 'NONE',  ( 0.000000000000000000, 0.000000000000000000, 6.500000000000000000 ) ) ;
#208 = CARTESIAN_POINT ( 'NONE',  ( 0.000000000000000000, 0.000000000000000000, 500.0000000000000000 ) ) ;
#209 = CIRCLE ( 'NONE', #188, 5.500000000000000000 ) ;
#210 = CC_DESIGN_SECURITY_CLASSIFICATION ( #174, ( #248 ) ) ;
#211 = CIRCLE ( 'NONE', #229, 9.000000000000000000 ) ;
#212 = LOCAL_TIME ( 13, 19, 12.00000000000000000, #16 ) ;
#213 = APPROVAL_ROLE ( '' ) ;
#214 = CC_DESIGN_PERSON_AND_ORGANIZATION_ASSIGNMENT ( #74, #203, ( #248 ) ) ;
#215 = CIRCLE ( 'NONE', #99, 5.500000000000000000 ) ;
#216 = ORGANIZATION ( 'NEURÈENÝ', 'NEURÈENÝ', '' ) ;
#217 = DIRECTION ( 'NONE',  ( 1.000000000000000000, 0.000000000000000000, 0.000000000000000000 ) ) ;
#218 = CARTESIAN_POINT ( 'NONE',  ( 0.000000000000000000, 0.000000000000000000, 0.000000000000000000 ) ) ;
#219 = EDGE_CURVE ( 'NONE', #6, #239, #119, .T. ) ;
#220 = PLANE ( 'NONE',  #136 ) ;
#221 = PRODUCT ( '2992', '2992', '', ( #7 ) ) ;
#222 = APPLICATION_CONTEXT ( 'configuration controlled 3d designs of mechanical parts and assemblies' ) ;
#223 = CARTESIAN_POINT ( 'NONE',  ( 0.000000000000000000, 0.000000000000000000, 6.500000000000000000 ) ) ;
#224 = AXIS2_PLACEMENT_3D ( 'NONE', #24, #126, #205 ) ;
#225 = DIRECTION ( 'NONE',  ( 1.000000000000000000, 0.000000000000000000, 0.000000000000000000 ) ) ;
#226 = CARTESIAN_POINT ( 'NONE',  ( -9.000000000000000000, 0.000000000000000000, 6.500000000000000000 ) ) ;
#227 = ADVANCED_FACE ( 'NONE', ( #86 ), #154, .T. ) ;
#228 = ORIENTED_EDGE ( 'NONE', *, *, #12, .F. ) ;
#229 = AXIS2_PLACEMENT_3D ( 'NONE', #207, #185, #33 ) ;
#230 = CARTESIAN_POINT ( 'NONE',  ( 0.000000000000000000, 0.000000000000000000, 6.500000000000000000 ) ) ;
#231 = ORIENTED_EDGE ( 'NONE', *, *, #187, .F. ) ;
#232 = ORIENTED_EDGE ( 'NONE', *, *, #219, .T. ) ;
#233 = DIRECTION ( 'NONE',  ( 0.000000000000000000, 0.000000000000000000, 1.000000000000000000 ) ) ;
#234 = EDGE_CURVE ( 'NONE', #164, #35, #106, .T. ) ;
#235 = APPLICATION_CONTEXT ( 'configuration controlled 3d designs of mechanical parts and assemblies' ) ;
#236 = PRODUCT_DEFINITION ( 'NEZNÁMÝ', '', #248, #105 ) ;
#237 = PERSON_AND_ORGANIZATION_ROLE ( 'design_supplier' ) ;
#238 = PERSON_AND_ORGANIZATION ( #29, #216 ) ;
#239 = VERTEX_POINT ( 'NONE', #201 ) ;
#240 = EDGE_CURVE ( 'NONE', #177, #164, #2, .T. ) ;
#241 = DIRECTION ( 'NONE',  ( 1.000000000000000000, 0.000000000000000000, -0.000000000000000000 ) ) ;
#242 = VERTEX_POINT ( 'NONE', #156 ) ;
#243 = CIRCLE ( 'NONE', #199, 5.500000000000000000 ) ;
#244 = ORIENTED_EDGE ( 'NONE', *, *, #12, .T. ) ;
#245 = CARTESIAN_POINT ( 'NONE',  ( 0.000000000000000000, 0.000000000000000000, 6.500000000000000000 ) ) ;
#246 = FACE_OUTER_BOUND ( 'NONE', #69, .T. ) ;
#247 = APPROVAL ( #193, 'NEURÈENÝ' ) ;
#248 = PRODUCT_DEFINITION_FORMATION_WITH_SPECIFIED_SOURCE ( 'LIBOVOLNÝ', '', #221, .NOT_KNOWN. ) ;
#249 = DIRECTION ( 'NONE',  ( 0.000000000000000000, 0.000000000000000000, 1.000000000000000000 ) ) ;
#250 = CC_DESIGN_APPROVAL ( #247, ( #248 ) ) ;
#251 = EDGE_CURVE ( 'NONE', #62, #242, #26, .T. ) ;
#252 = LOCAL_TIME ( 13, 19, 12.00000000000000000, #15 ) ;
#253 = DATE_TIME_ROLE ( 'creation_date' ) ;
#254 = APPROVAL_STATUS ( 'not_yet_approved' ) ;
#255 = DIRECTION ( 'NONE',  ( -0.000000000000000000, -0.000000000000000000, -1.000000000000000000 ) ) ;
ENDSEC;
END-ISO-10303-21;
