ISO-10303-21;
HEADER;
FILE_DESCRIPTION (( 'STEP AP203' ),
    '1' );
FILE_NAME ('dd2e.STEP',
    '2023-02-13T17:17:42',
    ( '' ),
    ( '' ),
    'SwSTEP 2.0',
    'SolidWorks 2019',
    '' );
FILE_SCHEMA (( 'CONFIG_CONTROL_DESIGN' ));
ENDSEC;

DATA;
#1 = DIRECTION ( 'NONE',  ( 0.000000000000000000, 0.000000000000000000, 1.000000000000000000 ) ) ;
#2 = CIRCLE ( 'NONE', #163, 1.500000000000000222 ) ;
#3 = CC_DESIGN_PERSON_AND_ORGANIZATION_ASSIGNMENT ( #221, #15, ( #209 ) ) ;
#4 = ORIENTED_EDGE ( 'NONE', *, *, #193, .F. ) ;
#5 = EDGE_CURVE ( 'NONE', #45, #165, #207, .T. ) ;
#6 = VERTEX_POINT ( 'NONE', #168 ) ;
#7 = DIRECTION ( 'NONE',  ( 0.000000000000000000, 0.000000000000000000, 1.000000000000000000 ) ) ;
#8 = LOCAL_TIME ( 18, 17, 42.00000000000000000, #254 ) ;
#9 = EDGE_CURVE ( 'NONE', #206, #28, #2, .T. ) ;
#10 = CARTESIAN_POINT ( 'NONE',  ( -0.8000000000000000444, 0.000000000000000000, 125.0000000000000000 ) ) ;
#11 = CARTESIAN_POINT ( 'NONE',  ( 0.8000000000000000444, 9.797174393178826150E-17, 125.0000000000000000 ) ) ;
#12 = CIRCLE ( 'NONE', #39, 1.500000000000000222 ) ;
#13 = PERSON ( 'NEURÈENÝ', 'NEURÈENÝ', 'NEURÈENÝ', ('NEURÈENÝ'), ('NEURÈENÝ'), ('NEURÈENÝ') ) ;
#14 = CARTESIAN_POINT ( 'NONE',  ( 0.000000000000000000, 0.000000000000000000, 1.500000000000000000 ) ) ;
#15 = PERSON_AND_ORGANIZATION_ROLE ( 'design_owner' ) ;
#16 = CYLINDRICAL_SURFACE ( 'NONE', #212, 0.8000000000000000444 ) ;
#17 = SECURITY_CLASSIFICATION_LEVEL ( 'unclassified' ) ;
#18 = APPROVAL_ROLE ( '' ) ;
#19 = SHAPE_DEFINITION_REPRESENTATION ( #52, #102 ) ;
#20 = FACE_OUTER_BOUND ( 'NONE', #47, .T. ) ;
#21 = PERSON_AND_ORGANIZATION ( #13, #124 ) ;
#22 = AXIS2_PLACEMENT_3D ( 'NONE', #184, #183, #167 ) ;
#23 = CARTESIAN_POINT ( 'NONE',  ( 0.8000000000000000444, 9.797174393178826150E-17, 125.0000000000000000 ) ) ;
#24 = ORIENTED_EDGE ( 'NONE', *, *, #74, .F. ) ;
#25 = SECURITY_CLASSIFICATION ( '', '', #17 ) ;
#26 = DIRECTION ( 'NONE',  ( 0.000000000000000000, 0.000000000000000000, 1.000000000000000000 ) ) ;
#27 = ORIENTED_EDGE ( 'NONE', *, *, #175, .T. ) ;
#28 = VERTEX_POINT ( 'NONE', #227 ) ;
#29 = CC_DESIGN_DATE_AND_TIME_ASSIGNMENT ( #105, #121, ( #25 ) ) ;
#30 = VECTOR ( 'NONE', #92, 1000.000000000000000 ) ;
#31 = LOCAL_TIME ( 18, 17, 42.00000000000000000, #57 ) ;
#32 = DIRECTION ( 'NONE',  ( 0.000000000000000000, 0.000000000000000000, 1.000000000000000000 ) ) ;
#33 = CARTESIAN_POINT ( 'NONE',  ( 0.000000000000000000, 0.000000000000000000, 125.0000000000000000 ) ) ;
#34 = DIRECTION ( 'NONE',  ( 1.000000000000000000, 0.000000000000000000, -0.000000000000000000 ) ) ;
#35 =( NAMED_UNIT ( * ) SI_UNIT ( $, .STERADIAN. ) SOLID_ANGLE_UNIT ( ) );
#36 = FACE_OUTER_BOUND ( 'NONE', #48, .T. ) ;
#37 = APPROVAL_STATUS ( 'not_yet_approved' ) ;
#38 = PERSON_AND_ORGANIZATION_ROLE ( 'creator' ) ;
#39 = AXIS2_PLACEMENT_3D ( 'NONE', #44, #67, #128 ) ;
#40 = DATE_AND_TIME ( #117, #133 ) ;
#41 = PRODUCT_RELATED_PRODUCT_CATEGORY ( 'detail', '', ( #209 ) ) ;
#42 = CIRCLE ( 'NONE', #196, 0.8000000000000000444 ) ;
#43 = ORIENTED_EDGE ( 'NONE', *, *, #74, .T. ) ;
#44 = CARTESIAN_POINT ( 'NONE',  ( 0.000000000000000000, 0.000000000000000000, 0.000000000000000000 ) ) ;
#45 = VERTEX_POINT ( 'NONE', #10 ) ;
#46 = EDGE_CURVE ( 'NONE', #202, #45, #42, .T. ) ;
#47 = EDGE_LOOP ( 'NONE', ( #134, #71, #132, #145 ) ) ;
#48 = EDGE_LOOP ( 'NONE', ( #130, #111, #27, #24 ) ) ;
#49 = FACE_BOUND ( 'NONE', #166, .T. ) ;
#50 = VECTOR ( 'NONE', #245, 1000.000000000000000 ) ;
#51 = DIRECTION ( 'NONE',  ( -0.000000000000000000, -0.000000000000000000, -1.000000000000000000 ) ) ;
#52 = PRODUCT_DEFINITION_SHAPE ( 'NONE', 'NONE',  #213 ) ;
#53 = ADVANCED_FACE ( 'NONE', ( #49, #136 ), #140, .T. ) ;
#54 = DIRECTION ( 'NONE',  ( -1.000000000000000000, 0.000000000000000000, 0.000000000000000000 ) ) ;
#55 = APPLICATION_PROTOCOL_DEFINITION ( 'international standard', 'config_control_design', 1994, #62 ) ;
#56 = APPROVAL ( #37, 'NEURÈENÝ' ) ;
#57 = COORDINATED_UNIVERSAL_TIME_OFFSET ( 1, 0, .AHEAD. ) ;
#58 = DESIGN_CONTEXT ( 'detailed design', #253, 'design' ) ;
#59 = FACE_OUTER_BOUND ( 'NONE', #68, .T. ) ;
#60 = COORDINATED_UNIVERSAL_TIME_OFFSET ( 1, 0, .AHEAD. ) ;
#61 = CIRCLE ( 'NONE', #142, 1.500000000000000222 ) ;
#62 = APPLICATION_CONTEXT ( 'configuration controlled 3d designs of mechanical parts and assemblies' ) ;
#63 = APPROVAL_ROLE ( '' ) ;
#64 = LINE ( 'NONE', #97, #50 ) ;
#65 = PERSON_AND_ORGANIZATION ( #13, #124 ) ;
#66 = ADVANCED_FACE ( 'NONE', ( #36 ), #73, .T. ) ;
#67 = DIRECTION ( 'NONE',  ( 0.000000000000000000, 0.000000000000000000, 1.000000000000000000 ) ) ;
#68 = EDGE_LOOP ( 'NONE', ( #70, #185, #129, #187 ) ) ;
#69 = CIRCLE ( 'NONE', #108, 0.8000000000000000444 ) ;
#70 = ORIENTED_EDGE ( 'NONE', *, *, #46, .F. ) ;
#71 = ORIENTED_EDGE ( 'NONE', *, *, #219, .F. ) ;
#72 = EDGE_LOOP ( 'NONE', ( #182, #112 ) ) ;
#73 = CYLINDRICAL_SURFACE ( 'NONE', #138, 1.500000000000000222 ) ;
#74 = EDGE_CURVE ( 'NONE', #28, #89, #194, .T. ) ;
#75 = AXIS2_PLACEMENT_3D ( 'NONE', #14, #137, #250 ) ;
#76 = DIRECTION ( 'NONE',  ( 0.000000000000000000, 0.000000000000000000, 1.000000000000000000 ) ) ;
#77 = LINE ( 'NONE', #11, #127 ) ;
#78 = AXIS2_PLACEMENT_3D ( 'NONE', #110, #139, #173 ) ;
#79 = DATE_AND_TIME ( #215, #31 ) ;
#80 = DATE_AND_TIME ( #218, #170 ) ;
#81 = APPLICATION_PROTOCOL_DEFINITION ( 'international standard', 'config_control_design', 1994, #253 ) ;
#82 = APPROVAL ( #162, 'NEURÈENÝ' ) ;
#83 = DIRECTION ( 'NONE',  ( 1.000000000000000000, 0.000000000000000000, 0.000000000000000000 ) ) ;
#84 = CC_DESIGN_APPROVAL ( #82, ( #234 ) ) ;
#85 = PERSON_AND_ORGANIZATION ( #13, #124 ) ;
#86 = ADVANCED_FACE ( 'NONE', ( #59 ), #16, .T. ) ;
#87 = DIRECTION ( 'NONE',  ( 1.000000000000000000, 0.000000000000000000, 0.000000000000000000 ) ) ;
#88 = APPROVAL_PERSON_ORGANIZATION ( #85, #82, #63 ) ;
#89 = VERTEX_POINT ( 'NONE', #98 ) ;
#90 = ORIENTED_EDGE ( 'NONE', *, *, #205, .F. ) ;
#91 = CC_DESIGN_PERSON_AND_ORGANIZATION_ASSIGNMENT ( #65, #103, ( #234 ) ) ;
#92 = DIRECTION ( 'NONE',  ( -0.000000000000000000, -0.000000000000000000, -1.000000000000000000 ) ) ;
#93 = CIRCLE ( 'NONE', #249, 0.8000000000000000444 ) ;
#94 = DIRECTION ( 'NONE',  ( 1.000000000000000000, 0.000000000000000000, 0.000000000000000000 ) ) ;
#95 = CARTESIAN_POINT ( 'NONE',  ( 0.000000000000000000, 0.000000000000000000, 0.000000000000000000 ) ) ;
#96 = CARTESIAN_POINT ( 'NONE',  ( 0.000000000000000000, 0.000000000000000000, 125.0000000000000000 ) ) ;
#97 = CARTESIAN_POINT ( 'NONE',  ( 1.500000000000000222, 1.836970198721030181E-16, 1.500000000000000000 ) ) ;
#98 = CARTESIAN_POINT ( 'NONE',  ( -1.500000000000000222, 0.000000000000000000, 0.000000000000000000 ) ) ;
#99 = CC_DESIGN_APPROVAL ( #56, ( #213 ) ) ;
#100 = AXIS2_PLACEMENT_3D ( 'NONE', #113, #201, #238 ) ;
#101 = EDGE_CURVE ( 'NONE', #6, #165, #217, .T. ) ;
#102 = ADVANCED_BREP_SHAPE_REPRESENTATION ( 'dd2e', ( #255, #107 ), #246 ) ;
#103 = PERSON_AND_ORGANIZATION_ROLE ( 'design_supplier' ) ;
#104 = DIRECTION ( 'NONE',  ( -0.000000000000000000, -0.000000000000000000, -1.000000000000000000 ) ) ;
#105 = DATE_AND_TIME ( #177, #174 ) ;
#106 = APPROVAL_STATUS ( 'not_yet_approved' ) ;
#107 = AXIS2_PLACEMENT_3D ( 'NONE', #248, #1, #83 ) ;
#108 = AXIS2_PLACEMENT_3D ( 'NONE', #204, #26, #87 ) ;
#109 = EDGE_LOOP ( 'NONE', ( #90, #181 ) ) ;
#110 = CARTESIAN_POINT ( 'NONE',  ( 0.000000000000000000, 0.000000000000000000, 1.500000000000000000 ) ) ;
#111 = ORIENTED_EDGE ( 'NONE', *, *, #242, .T. ) ;
#112 = ORIENTED_EDGE ( 'NONE', *, *, #9, .T. ) ;
#113 = CARTESIAN_POINT ( 'NONE',  ( 0.000000000000000000, 0.000000000000000000, 1.500000000000000000 ) ) ;
#114 = ORIENTED_EDGE ( 'NONE', *, *, #46, .T. ) ;
#115 = CARTESIAN_POINT ( 'NONE',  ( -1.500000000000000222, 0.000000000000000000, 1.500000000000000000 ) ) ;
#116 = AXIS2_PLACEMENT_3D ( 'NONE', #157, #76, #34 ) ;
#117 = CALENDAR_DATE ( 2023, 13, 2 ) ;
#118 = APPROVAL_PERSON_ORGANIZATION ( #21, #235, #18 ) ;
#119 = PERSON_AND_ORGANIZATION ( #13, #124 ) ;
#120 = ADVANCED_FACE ( 'NONE', ( #192 ), #214, .F. ) ;
#121 = DATE_TIME_ROLE ( 'classification_date' ) ;
#122 = PERSON_AND_ORGANIZATION ( #13, #124 ) ;
#123 = CC_DESIGN_DATE_AND_TIME_ASSIGNMENT ( #79, #161, ( #213 ) ) ;
#124 = ORGANIZATION ( 'NEURÈENÝ', 'NEURÈENÝ', '' ) ;
#125 = FACE_OUTER_BOUND ( 'NONE', #172, .T. ) ;
#126 = EDGE_CURVE ( 'NONE', #202, #6, #77, .T. ) ;
#127 = VECTOR ( 'NONE', #244, 1000.000000000000000 ) ;
#128 = DIRECTION ( 'NONE',  ( 1.000000000000000000, 0.000000000000000000, 0.000000000000000000 ) ) ;
#129 = ORIENTED_EDGE ( 'NONE', *, *, #101, .T. ) ;
#130 = ORIENTED_EDGE ( 'NONE', *, *, #9, .F. ) ;
#131 = FACE_OUTER_BOUND ( 'NONE', #237, .T. ) ;
#132 = ORIENTED_EDGE ( 'NONE', *, *, #5, .T. ) ;
#133 = LOCAL_TIME ( 18, 17, 42.00000000000000000, #144 ) ;
#134 = ORIENTED_EDGE ( 'NONE', *, *, #126, .F. ) ;
#135 =( NAMED_UNIT ( * ) PLANE_ANGLE_UNIT ( ) SI_UNIT ( $, .RADIAN. ) );
#136 = FACE_OUTER_BOUND ( 'NONE', #72, .T. ) ;
#137 = DIRECTION ( 'NONE',  ( 0.000000000000000000, 0.000000000000000000, 1.000000000000000000 ) ) ;
#138 = AXIS2_PLACEMENT_3D ( 'NONE', #232, #51, #54 ) ;
#139 = DIRECTION ( 'NONE',  ( 0.000000000000000000, 0.000000000000000000, 1.000000000000000000 ) ) ;
#140 = PLANE ( 'NONE',  #116 ) ;
#141 = CARTESIAN_POINT ( 'NONE',  ( 0.000000000000000000, 0.000000000000000000, 0.000000000000000000 ) ) ;
#142 = AXIS2_PLACEMENT_3D ( 'NONE', #95, #171, #240 ) ;
#143 = APPROVAL_DATE_TIME ( #80, #56 ) ;
#144 = COORDINATED_UNIVERSAL_TIME_OFFSET ( 1, 0, .AHEAD. ) ;
#145 = ORIENTED_EDGE ( 'NONE', *, *, #193, .T. ) ;
#146 = DIRECTION ( 'NONE',  ( 1.000000000000000000, 0.000000000000000000, -0.000000000000000000 ) ) ;
#147 = ORIENTED_EDGE ( 'NONE', *, *, #101, .F. ) ;
#148 = CARTESIAN_POINT ( 'NONE',  ( 0.000000000000000000, 0.000000000000000000, 125.0000000000000000 ) ) ;
#149 = ORIENTED_EDGE ( 'NONE', *, *, #205, .T. ) ;
#150 = VECTOR ( 'NONE', #191, 1000.000000000000000 ) ;
#151 = CARTESIAN_POINT ( 'NONE',  ( -0.8000000000000000444, 0.000000000000000000, 1.500000000000000000 ) ) ;
#152 = CARTESIAN_POINT ( 'NONE',  ( 1.500000000000000222, 1.836970198721030181E-16, 0.000000000000000000 ) ) ;
#153 = CC_DESIGN_APPROVAL ( #235, ( #25 ) ) ;
#154 = COORDINATED_UNIVERSAL_TIME_OFFSET ( 1, 0, .AHEAD. ) ;
#155 = CC_DESIGN_PERSON_AND_ORGANIZATION_ASSIGNMENT ( #251, #38, ( #213 ) ) ;
#156 = UNCERTAINTY_MEASURE_WITH_UNIT (LENGTH_MEASURE( 1.000000000000000082E-05 ), #190, 'distance_accuracy_value', 'NONE');
#157 = CARTESIAN_POINT ( 'NONE',  ( 0.000000000000000000, 0.000000000000000000, 1.500000000000000000 ) ) ;
#158 = PERSON_AND_ORGANIZATION_ROLE ( 'classification_officer' ) ;
#159 = MECHANICAL_CONTEXT ( 'NONE', #62, 'mechanical' ) ;
#160 = AXIS2_PLACEMENT_3D ( 'NONE', #148, #226, #146 ) ;
#161 = DATE_TIME_ROLE ( 'creation_date' ) ;
#162 = APPROVAL_STATUS ( 'not_yet_approved' ) ;
#163 = AXIS2_PLACEMENT_3D ( 'NONE', #225, #7, #94 ) ;
#164 = PLANE ( 'NONE',  #160 ) ;
#165 = VERTEX_POINT ( 'NONE', #151 ) ;
#166 = EDGE_LOOP ( 'NONE', ( #4, #147 ) ) ;
#167 = DIRECTION ( 'NONE',  ( -1.000000000000000000, 0.000000000000000000, 0.000000000000000000 ) ) ;
#168 = CARTESIAN_POINT ( 'NONE',  ( 0.8000000000000000444, 9.797174393178826150E-17, 1.500000000000000000 ) ) ;
#169 = ADVANCED_FACE ( 'NONE', ( #20 ), #197, .T. ) ;
#170 = LOCAL_TIME ( 18, 17, 42.00000000000000000, #60 ) ;
#171 = DIRECTION ( 'NONE',  ( 0.000000000000000000, 0.000000000000000000, 1.000000000000000000 ) ) ;
#172 = EDGE_LOOP ( 'NONE', ( #223, #114 ) ) ;
#173 = DIRECTION ( 'NONE',  ( 1.000000000000000000, 0.000000000000000000, 0.000000000000000000 ) ) ;
#174 = LOCAL_TIME ( 18, 17, 42.00000000000000000, #154 ) ;
#175 = EDGE_CURVE ( 'NONE', #239, #89, #61, .T. ) ;
#176 = DIRECTION ( 'NONE',  ( 0.000000000000000000, 0.000000000000000000, 1.000000000000000000 ) ) ;
#177 = CALENDAR_DATE ( 2023, 13, 2 ) ;
#178 = DATE_AND_TIME ( #231, #8 ) ;
#179 = ADVANCED_FACE ( 'NONE', ( #125 ), #164, .T. ) ;
#180 = CARTESIAN_POINT ( 'NONE',  ( 1.500000000000000222, 1.836970198721030181E-16, 1.500000000000000000 ) ) ;
#181 = ORIENTED_EDGE ( 'NONE', *, *, #175, .F. ) ;
#182 = ORIENTED_EDGE ( 'NONE', *, *, #233, .T. ) ;
#183 = DIRECTION ( 'NONE',  ( -0.000000000000000000, -0.000000000000000000, -1.000000000000000000 ) ) ;
#184 = CARTESIAN_POINT ( 'NONE',  ( 0.000000000000000000, 0.000000000000000000, 125.0000000000000000 ) ) ;
#185 = ORIENTED_EDGE ( 'NONE', *, *, #126, .T. ) ;
#186 = CLOSED_SHELL ( 'NONE', ( #86, #66, #188, #53, #120, #169, #179 ) ) ;
#187 = ORIENTED_EDGE ( 'NONE', *, *, #5, .F. ) ;
#188 = ADVANCED_FACE ( 'NONE', ( #131 ), #208, .T. ) ;
#189 = DIRECTION ( 'NONE',  ( -1.000000000000000000, 0.000000000000000000, 0.000000000000000000 ) ) ;
#190 =( LENGTH_UNIT ( ) NAMED_UNIT ( * ) SI_UNIT ( .MILLI., .METRE. ) );
#191 = DIRECTION ( 'NONE',  ( -0.000000000000000000, -0.000000000000000000, -1.000000000000000000 ) ) ;
#192 = FACE_OUTER_BOUND ( 'NONE', #109, .T. ) ;
#193 = EDGE_CURVE ( 'NONE', #165, #6, #93, .T. ) ;
#194 = LINE ( 'NONE', #115, #150 ) ;
#195 = APPROVAL_DATE_TIME ( #40, #82 ) ;
#196 = AXIS2_PLACEMENT_3D ( 'NONE', #96, #32, #228 ) ;
#197 = CYLINDRICAL_SURFACE ( 'NONE', #22, 0.8000000000000000444 ) ;
#198 = APPROVAL_DATE_TIME ( #178, #235 ) ;
#199 = PERSON_AND_ORGANIZATION_ROLE ( 'creator' ) ;
#200 = DIRECTION ( 'NONE',  ( 0.000000000000000000, 0.000000000000000000, 1.000000000000000000 ) ) ;
#201 = DIRECTION ( 'NONE',  ( -0.000000000000000000, -0.000000000000000000, -1.000000000000000000 ) ) ;
#202 = VERTEX_POINT ( 'NONE', #23 ) ;
#203 = CIRCLE ( 'NONE', #78, 1.500000000000000222 ) ;
#204 = CARTESIAN_POINT ( 'NONE',  ( 0.000000000000000000, 0.000000000000000000, 125.0000000000000000 ) ) ;
#205 = EDGE_CURVE ( 'NONE', #89, #239, #12, .T. ) ;
#206 = VERTEX_POINT ( 'NONE', #180 ) ;
#207 = LINE ( 'NONE', #211, #30 ) ;
#208 = CYLINDRICAL_SURFACE ( 'NONE', #100, 1.500000000000000222 ) ;
#209 = PRODUCT ( 'dd2e', 'dd2e', '', ( #159 ) ) ;
#210 = CC_DESIGN_SECURITY_CLASSIFICATION ( #25, ( #234 ) ) ;
#211 = CARTESIAN_POINT ( 'NONE',  ( -0.8000000000000000444, 0.000000000000000000, 125.0000000000000000 ) ) ;
#212 = AXIS2_PLACEMENT_3D ( 'NONE', #33, #104, #189 ) ;
#213 = PRODUCT_DEFINITION ( 'NEZNÁMÝ', '', #234, #58 ) ;
#214 = PLANE ( 'NONE',  #230 ) ;
#215 = CALENDAR_DATE ( 2023, 13, 2 ) ;
#216 = APPROVAL_ROLE ( '' ) ;
#217 = CIRCLE ( 'NONE', #75, 0.8000000000000000444 ) ;
#218 = CALENDAR_DATE ( 2023, 13, 2 ) ;
#219 = EDGE_CURVE ( 'NONE', #45, #202, #69, .T. ) ;
#220 = PERSON_AND_ORGANIZATION ( #13, #124 ) ;
#221 = PERSON_AND_ORGANIZATION ( #13, #124 ) ;
#222 = CC_DESIGN_PERSON_AND_ORGANIZATION_ASSIGNMENT ( #119, #158, ( #25 ) ) ;
#223 = ORIENTED_EDGE ( 'NONE', *, *, #219, .T. ) ;
#224 = CARTESIAN_POINT ( 'NONE',  ( 0.000000000000000000, 0.000000000000000000, 1.500000000000000000 ) ) ;
#225 = CARTESIAN_POINT ( 'NONE',  ( 0.000000000000000000, 0.000000000000000000, 1.500000000000000000 ) ) ;
#226 = DIRECTION ( 'NONE',  ( 0.000000000000000000, 0.000000000000000000, 1.000000000000000000 ) ) ;
#227 = CARTESIAN_POINT ( 'NONE',  ( -1.500000000000000222, 0.000000000000000000, 1.500000000000000000 ) ) ;
#228 = DIRECTION ( 'NONE',  ( 1.000000000000000000, 0.000000000000000000, 0.000000000000000000 ) ) ;
#229 = APPROVAL_PERSON_ORGANIZATION ( #122, #56, #216 ) ;
#230 = AXIS2_PLACEMENT_3D ( 'NONE', #141, #176, #247 ) ;
#231 = CALENDAR_DATE ( 2023, 13, 2 ) ;
#232 = CARTESIAN_POINT ( 'NONE',  ( 0.000000000000000000, 0.000000000000000000, 1.500000000000000000 ) ) ;
#233 = EDGE_CURVE ( 'NONE', #28, #206, #203, .T. ) ;
#234 = PRODUCT_DEFINITION_FORMATION_WITH_SPECIFIED_SOURCE ( 'LIBOVOLNÝ', '', #209, .NOT_KNOWN. ) ;
#235 = APPROVAL ( #106, 'NEURÈENÝ' ) ;
#236 = DIRECTION ( 'NONE',  ( 1.000000000000000000, 0.000000000000000000, 0.000000000000000000 ) ) ;
#237 = EDGE_LOOP ( 'NONE', ( #243, #241, #43, #149 ) ) ;
#238 = DIRECTION ( 'NONE',  ( -1.000000000000000000, 0.000000000000000000, 0.000000000000000000 ) ) ;
#239 = VERTEX_POINT ( 'NONE', #152 ) ;
#240 = DIRECTION ( 'NONE',  ( 1.000000000000000000, 0.000000000000000000, 0.000000000000000000 ) ) ;
#241 = ORIENTED_EDGE ( 'NONE', *, *, #233, .F. ) ;
#242 = EDGE_CURVE ( 'NONE', #206, #239, #64, .T. ) ;
#243 = ORIENTED_EDGE ( 'NONE', *, *, #242, .F. ) ;
#244 = DIRECTION ( 'NONE',  ( -0.000000000000000000, -0.000000000000000000, -1.000000000000000000 ) ) ;
#245 = DIRECTION ( 'NONE',  ( -0.000000000000000000, -0.000000000000000000, -1.000000000000000000 ) ) ;
#246 =( GEOMETRIC_REPRESENTATION_CONTEXT ( 3 ) GLOBAL_UNCERTAINTY_ASSIGNED_CONTEXT ( ( #156 ) ) GLOBAL_UNIT_ASSIGNED_CONTEXT ( ( #190, #135, #35 ) ) REPRESENTATION_CONTEXT ( 'NONE', 'WORKASPACE' ) );
#247 = DIRECTION ( 'NONE',  ( 1.000000000000000000, 0.000000000000000000, -0.000000000000000000 ) ) ;
#248 = CARTESIAN_POINT ( 'NONE',  ( 0.000000000000000000, 0.000000000000000000, 0.000000000000000000 ) ) ;
#249 = AXIS2_PLACEMENT_3D ( 'NONE', #224, #200, #236 ) ;
#250 = DIRECTION ( 'NONE',  ( 1.000000000000000000, 0.000000000000000000, 0.000000000000000000 ) ) ;
#251 = PERSON_AND_ORGANIZATION ( #13, #124 ) ;
#252 = CC_DESIGN_PERSON_AND_ORGANIZATION_ASSIGNMENT ( #220, #199, ( #234 ) ) ;
#253 = APPLICATION_CONTEXT ( 'configuration controlled 3d designs of mechanical parts and assemblies' ) ;
#254 = COORDINATED_UNIVERSAL_TIME_OFFSET ( 1, 0, .AHEAD. ) ;
#255 = MANIFOLD_SOLID_BREP ( 'Pøidat vysunutím3', #186 ) ;
ENDSEC;
END-ISO-10303-21;
