ISO-10303-21;
HEADER;
FILE_DESCRIPTION (( 'STEP AP203' ),
    '1' );
FILE_NAME ('1241.STEP',
    '2023-02-13T16:04:36',
    ( '' ),
    ( '' ),
    'SwSTEP 2.0',
    'SolidWorks 2019',
    '' );
FILE_SCHEMA (( 'CONFIG_CONTROL_DESIGN' ));
ENDSEC;

DATA;
#1 = EDGE_CURVE ( 'NONE', #10, #133, #95, .T. ) ;
#2 = CARTESIAN_POINT ( 'NONE',  ( -2.600000000000000089, 0.000000000000000000, 125.0000000000000000 ) ) ;
#3 = AXIS2_PLACEMENT_3D ( 'NONE', #108, #195, #175 ) ;
#4 = FACE_OUTER_BOUND ( 'NONE', #204, .T. ) ;
#5 =( NAMED_UNIT ( * ) SI_UNIT ( $, .STERADIAN. ) SOLID_ANGLE_UNIT ( ) );
#6 = PERSON_AND_ORGANIZATION ( #254, #247 ) ;
#7 = DIRECTION ( 'NONE',  ( -0.000000000000000000, -0.000000000000000000, -1.000000000000000000 ) ) ;
#8 = CC_DESIGN_APPROVAL ( #178, ( #130 ) ) ;
#9 = PERSON_AND_ORGANIZATION ( #254, #247 ) ;
#10 = VERTEX_POINT ( 'NONE', #242 ) ;
#11 = ORIENTED_EDGE ( 'NONE', *, *, #163, .F. ) ;
#12 = CYLINDRICAL_SURFACE ( 'NONE', #40, 2.600000000000000089 ) ;
#13 = ORIENTED_EDGE ( 'NONE', *, *, #89, .F. ) ;
#14 = CARTESIAN_POINT ( 'NONE',  ( 5.000000000000000000, 6.123233995736766282E-16, 0.000000000000000000 ) ) ;
#15 = CC_DESIGN_APPROVAL ( #169, ( #153 ) ) ;
#16 = DATE_AND_TIME ( #129, #128 ) ;
#17 = DIRECTION ( 'NONE',  ( -0.000000000000000000, -0.000000000000000000, -1.000000000000000000 ) ) ;
#18 = ADVANCED_FACE ( 'NONE', ( #134 ), #160, .T. ) ;
#19 = LINE ( 'NONE', #2, #126 ) ;
#20 = VERTEX_POINT ( 'NONE', #59 ) ;
#21 = PERSON_AND_ORGANIZATION ( #254, #247 ) ;
#22 = APPROVAL_PERSON_ORGANIZATION ( #234, #178, #214 ) ;
#23 = EDGE_CURVE ( 'NONE', #29, #141, #109, .T. ) ;
#24 = EDGE_LOOP ( 'NONE', ( #25, #79 ) ) ;
#25 = ORIENTED_EDGE ( 'NONE', *, *, #23, .T. ) ;
#26 = FACE_OUTER_BOUND ( 'NONE', #197, .T. ) ;
#27 = ORIENTED_EDGE ( 'NONE', *, *, #89, .T. ) ;
#28 = ORIENTED_EDGE ( 'NONE', *, *, #34, .T. ) ;
#29 = VERTEX_POINT ( 'NONE', #184 ) ;
#30 = CIRCLE ( 'NONE', #3, 5.000000000000000000 ) ;
#31 = APPROVAL_ROLE ( '' ) ;
#32 = PLANE ( 'NONE',  #35 ) ;
#33 = EDGE_CURVE ( 'NONE', #141, #29, #151, .T. ) ;
#34 = EDGE_CURVE ( 'NONE', #20, #120, #172, .T. ) ;
#35 = AXIS2_PLACEMENT_3D ( 'NONE', #39, #107, #207 ) ;
#36 = DIRECTION ( 'NONE',  ( -0.000000000000000000, -0.000000000000000000, -1.000000000000000000 ) ) ;
#37 = CYLINDRICAL_SURFACE ( 'NONE', #106, 2.600000000000000089 ) ;
#38 = DIRECTION ( 'NONE',  ( 0.000000000000000000, 0.000000000000000000, 1.000000000000000000 ) ) ;
#39 = CARTESIAN_POINT ( 'NONE',  ( 0.000000000000000000, 0.000000000000000000, 5.000000000000000000 ) ) ;
#40 = AXIS2_PLACEMENT_3D ( 'NONE', #156, #219, #118 ) ;
#41 = DIRECTION ( 'NONE',  ( 0.000000000000000000, 0.000000000000000000, 1.000000000000000000 ) ) ;
#42 = CALENDAR_DATE ( 2023, 13, 2 ) ;
#43 =( GEOMETRIC_REPRESENTATION_CONTEXT ( 3 ) GLOBAL_UNCERTAINTY_ASSIGNED_CONTEXT ( ( #208 ) ) GLOBAL_UNIT_ASSIGNED_CONTEXT ( ( #60, #45, #5 ) ) REPRESENTATION_CONTEXT ( 'NONE', 'WORKASPACE' ) );
#44 = ORIENTED_EDGE ( 'NONE', *, *, #145, .T. ) ;
#45 =( NAMED_UNIT ( * ) PLANE_ANGLE_UNIT ( ) SI_UNIT ( $, .RADIAN. ) );
#46 = DIRECTION ( 'NONE',  ( 1.000000000000000000, 0.000000000000000000, 0.000000000000000000 ) ) ;
#47 = PERSON_AND_ORGANIZATION ( #254, #247 ) ;
#48 = DIRECTION ( 'NONE',  ( 1.000000000000000000, 0.000000000000000000, 0.000000000000000000 ) ) ;
#49 = CARTESIAN_POINT ( 'NONE',  ( 0.000000000000000000, 0.000000000000000000, 5.000000000000000000 ) ) ;
#50 = ORIENTED_EDGE ( 'NONE', *, *, #62, .T. ) ;
#51 = CIRCLE ( 'NONE', #192, 5.000000000000000000 ) ;
#52 = FACE_BOUND ( 'NONE', #74, .T. ) ;
#53 = CARTESIAN_POINT ( 'NONE',  ( 5.000000000000000000, 6.123233995736766282E-16, 5.000000000000000000 ) ) ;
#54 = LOCAL_TIME ( 17, 4, 36.00000000000000000, #251 ) ;
#55 = SHAPE_DEFINITION_REPRESENTATION ( #157, #218 ) ;
#56 = CARTESIAN_POINT ( 'NONE',  ( 2.600000000000000089, 3.184081677783118191E-16, 125.0000000000000000 ) ) ;
#57 = EDGE_LOOP ( 'NONE', ( #119, #102, #114, #27 ) ) ;
#58 = DIRECTION ( 'NONE',  ( 1.000000000000000000, 0.000000000000000000, 0.000000000000000000 ) ) ;
#59 = CARTESIAN_POINT ( 'NONE',  ( 2.600000000000000089, 3.184081677783118191E-16, 5.000000000000000000 ) ) ;
#60 =( LENGTH_UNIT ( ) NAMED_UNIT ( * ) SI_UNIT ( .MILLI., .METRE. ) );
#61 = CIRCLE ( 'NONE', #194, 2.600000000000000089 ) ;
#62 = EDGE_CURVE ( 'NONE', #29, #120, #19, .T. ) ;
#63 = CALENDAR_DATE ( 2023, 13, 2 ) ;
#64 = DIRECTION ( 'NONE',  ( 1.000000000000000000, 0.000000000000000000, 0.000000000000000000 ) ) ;
#65 = ORIENTED_EDGE ( 'NONE', *, *, #104, .F. ) ;
#66 = AXIS2_PLACEMENT_3D ( 'NONE', #224, #159, #64 ) ;
#67 = APPROVAL_DATE_TIME ( #168, #178 ) ;
#68 = ADVANCED_FACE ( 'NONE', ( #241 ), #124, .T. ) ;
#69 = APPLICATION_CONTEXT ( 'configuration controlled 3d designs of mechanical parts and assemblies' ) ;
#70 = APPROVAL_PERSON_ORGANIZATION ( #47, #84, #31 ) ;
#71 = LOCAL_TIME ( 17, 4, 36.00000000000000000, #101 ) ;
#72 = COORDINATED_UNIVERSAL_TIME_OFFSET ( 1, 0, .AHEAD. ) ;
#73 = CARTESIAN_POINT ( 'NONE',  ( 0.000000000000000000, 0.000000000000000000, 5.000000000000000000 ) ) ;
#74 = EDGE_LOOP ( 'NONE', ( #149, #139 ) ) ;
#75 = CC_DESIGN_DATE_AND_TIME_ASSIGNMENT ( #229, #200, ( #153 ) ) ;
#76 = PLANE ( 'NONE',  #161 ) ;
#77 = PERSON_AND_ORGANIZATION_ROLE ( 'classification_officer' ) ;
#78 = DIRECTION ( 'NONE',  ( 0.000000000000000000, 0.000000000000000000, 1.000000000000000000 ) ) ;
#79 = ORIENTED_EDGE ( 'NONE', *, *, #33, .T. ) ;
#80 = ADVANCED_FACE ( 'NONE', ( #245 ), #181, .T. ) ;
#81 = CC_DESIGN_APPROVAL ( #84, ( #255 ) ) ;
#82 = CC_DESIGN_DATE_AND_TIME_ASSIGNMENT ( #16, #167, ( #130 ) ) ;
#83 = ORIENTED_EDGE ( 'NONE', *, *, #235, .T. ) ;
#84 = APPROVAL ( #206, 'NEURÈENÝ' ) ;
#85 = DIRECTION ( 'NONE',  ( -0.000000000000000000, -0.000000000000000000, -1.000000000000000000 ) ) ;
#86 = AXIS2_PLACEMENT_3D ( 'NONE', #73, #143, #48 ) ;
#87 = CARTESIAN_POINT ( 'NONE',  ( -5.000000000000000000, 0.000000000000000000, 0.000000000000000000 ) ) ;
#88 = AXIS2_PLACEMENT_3D ( 'NONE', #162, #183, #58 ) ;
#89 = EDGE_CURVE ( 'NONE', #133, #201, #230, .T. ) ;
#90 = CIRCLE ( 'NONE', #185, 5.000000000000000000 ) ;
#91 = MECHANICAL_CONTEXT ( 'NONE', #69, 'mechanical' ) ;
#92 = DIRECTION ( 'NONE',  ( 0.000000000000000000, 0.000000000000000000, 1.000000000000000000 ) ) ;
#93 = PERSON_AND_ORGANIZATION ( #254, #247 ) ;
#94 = APPLICATION_PROTOCOL_DEFINITION ( 'international standard', 'config_control_design', 1994, #69 ) ;
#95 = LINE ( 'NONE', #177, #203 ) ;
#96 = ORIENTED_EDGE ( 'NONE', *, *, #33, .F. ) ;
#97 = CALENDAR_DATE ( 2023, 13, 2 ) ;
#98 = VECTOR ( 'NONE', #17, 1000.000000000000000 ) ;
#99 = CARTESIAN_POINT ( 'NONE',  ( 0.000000000000000000, 0.000000000000000000, 0.000000000000000000 ) ) ;
#100 = ORIENTED_EDGE ( 'NONE', *, *, #163, .T. ) ;
#101 = COORDINATED_UNIVERSAL_TIME_OFFSET ( 1, 0, .AHEAD. ) ;
#102 = ORIENTED_EDGE ( 'NONE', *, *, #235, .F. ) ;
#103 = CC_DESIGN_PERSON_AND_ORGANIZATION_ASSIGNMENT ( #158, #240, ( #255 ) ) ;
#104 = EDGE_CURVE ( 'NONE', #141, #20, #116, .T. ) ;
#105 = APPROVAL_STATUS ( 'not_yet_approved' ) ;
#106 = AXIS2_PLACEMENT_3D ( 'NONE', #148, #36, #170 ) ;
#107 = DIRECTION ( 'NONE',  ( 0.000000000000000000, 0.000000000000000000, 1.000000000000000000 ) ) ;
#108 = CARTESIAN_POINT ( 'NONE',  ( 0.000000000000000000, 0.000000000000000000, 0.000000000000000000 ) ) ;
#109 = CIRCLE ( 'NONE', #210, 2.600000000000000089 ) ;
#110 = DIRECTION ( 'NONE',  ( 1.000000000000000000, 0.000000000000000000, 0.000000000000000000 ) ) ;
#111 = DATE_AND_TIME ( #42, #71 ) ;
#112 = DIRECTION ( 'NONE',  ( 0.000000000000000000, 0.000000000000000000, 1.000000000000000000 ) ) ;
#113 = APPROVAL_DATE_TIME ( #179, #169 ) ;
#114 = ORIENTED_EDGE ( 'NONE', *, *, #1, .T. ) ;
#115 = PRODUCT ( '1241', '1241', '', ( #91 ) ) ;
#116 = LINE ( 'NONE', #56, #98 ) ;
#117 = EDGE_LOOP ( 'NONE', ( #83, #44 ) ) ;
#118 = DIRECTION ( 'NONE',  ( -1.000000000000000000, 0.000000000000000000, 0.000000000000000000 ) ) ;
#119 = ORIENTED_EDGE ( 'NONE', *, *, #132, .F. ) ;
#120 = VERTEX_POINT ( 'NONE', #150 ) ;
#121 = MANIFOLD_SOLID_BREP ( 'Pøidat vysunutím3', #125 ) ;
#122 = AXIS2_PLACEMENT_3D ( 'NONE', #244, #78, #248 ) ;
#123 = APPROVAL_ROLE ( '' ) ;
#124 = CYLINDRICAL_SURFACE ( 'NONE', #205, 5.000000000000000000 ) ;
#125 = CLOSED_SHELL ( 'NONE', ( #211, #80, #68, #193, #171, #189, #18 ) ) ;
#126 = VECTOR ( 'NONE', #155, 1000.000000000000000 ) ;
#127 = PRODUCT_RELATED_PRODUCT_CATEGORY ( 'detail', '', ( #115 ) ) ;
#128 = LOCAL_TIME ( 17, 4, 36.00000000000000000, #135 ) ;
#129 = CALENDAR_DATE ( 2023, 13, 2 ) ;
#130 = SECURITY_CLASSIFICATION ( '', '', #131 ) ;
#131 = SECURITY_CLASSIFICATION_LEVEL ( 'unclassified' ) ;
#132 = EDGE_CURVE ( 'NONE', #190, #201, #236, .T. ) ;
#133 = VERTEX_POINT ( 'NONE', #87 ) ;
#134 = FACE_OUTER_BOUND ( 'NONE', #24, .T. ) ;
#135 = COORDINATED_UNIVERSAL_TIME_OFFSET ( 1, 0, .AHEAD. ) ;
#136 = CARTESIAN_POINT ( 'NONE',  ( 0.000000000000000000, 0.000000000000000000, 125.0000000000000000 ) ) ;
#137 = DIRECTION ( 'NONE',  ( 1.000000000000000000, 0.000000000000000000, -0.000000000000000000 ) ) ;
#138 = VECTOR ( 'NONE', #215, 1000.000000000000000 ) ;
#139 = ORIENTED_EDGE ( 'NONE', *, *, #34, .F. ) ;
#140 = DIRECTION ( 'NONE',  ( 1.000000000000000000, 0.000000000000000000, 0.000000000000000000 ) ) ;
#141 = VERTEX_POINT ( 'NONE', #213 ) ;
#142 = PERSON_AND_ORGANIZATION_ROLE ( 'design_owner' ) ;
#143 = DIRECTION ( 'NONE',  ( 0.000000000000000000, 0.000000000000000000, 1.000000000000000000 ) ) ;
#144 = ORIENTED_EDGE ( 'NONE', *, *, #132, .T. ) ;
#145 = EDGE_CURVE ( 'NONE', #190, #10, #90, .T. ) ;
#146 = AXIS2_PLACEMENT_3D ( 'NONE', #227, #7, #202 ) ;
#147 = CC_DESIGN_PERSON_AND_ORGANIZATION_ASSIGNMENT ( #93, #142, ( #115 ) ) ;
#148 = CARTESIAN_POINT ( 'NONE',  ( 0.000000000000000000, 0.000000000000000000, 125.0000000000000000 ) ) ;
#149 = ORIENTED_EDGE ( 'NONE', *, *, #243, .F. ) ;
#150 = CARTESIAN_POINT ( 'NONE',  ( -2.600000000000000089, 0.000000000000000000, 5.000000000000000000 ) ) ;
#151 = CIRCLE ( 'NONE', #66, 2.600000000000000089 ) ;
#152 = APPLICATION_CONTEXT ( 'configuration controlled 3d designs of mechanical parts and assemblies' ) ;
#153 = PRODUCT_DEFINITION ( 'NEZNÁMÝ', '', #255, #232 ) ;
#154 = CARTESIAN_POINT ( 'NONE',  ( 0.000000000000000000, 0.000000000000000000, 5.000000000000000000 ) ) ;
#155 = DIRECTION ( 'NONE',  ( -0.000000000000000000, -0.000000000000000000, -1.000000000000000000 ) ) ;
#156 = CARTESIAN_POINT ( 'NONE',  ( 0.000000000000000000, 0.000000000000000000, 125.0000000000000000 ) ) ;
#157 = PRODUCT_DEFINITION_SHAPE ( 'NONE', 'NONE',  #153 ) ;
#158 = PERSON_AND_ORGANIZATION ( #254, #247 ) ;
#159 = DIRECTION ( 'NONE',  ( 0.000000000000000000, 0.000000000000000000, 1.000000000000000000 ) ) ;
#160 = PLANE ( 'NONE',  #122 ) ;
#161 = AXIS2_PLACEMENT_3D ( 'NONE', #198, #92, #137 ) ;
#162 = CARTESIAN_POINT ( 'NONE',  ( 0.000000000000000000, 0.000000000000000000, 0.000000000000000000 ) ) ;
#163 = EDGE_CURVE ( 'NONE', #201, #133, #30, .T. ) ;
#164 = APPLICATION_PROTOCOL_DEFINITION ( 'international standard', 'config_control_design', 1994, #152 ) ;
#165 = FACE_OUTER_BOUND ( 'NONE', #117, .T. ) ;
#166 = ORIENTED_EDGE ( 'NONE', *, *, #62, .F. ) ;
#167 = DATE_TIME_ROLE ( 'classification_date' ) ;
#168 = DATE_AND_TIME ( #216, #54 ) ;
#169 = APPROVAL ( #223, 'NEURÈENÝ' ) ;
#170 = DIRECTION ( 'NONE',  ( -1.000000000000000000, 0.000000000000000000, 0.000000000000000000 ) ) ;
#171 = ADVANCED_FACE ( 'NONE', ( #4 ), #76, .F. ) ;
#172 = CIRCLE ( 'NONE', #86, 2.600000000000000089 ) ;
#173 = CC_DESIGN_PERSON_AND_ORGANIZATION_ASSIGNMENT ( #21, #77, ( #130 ) ) ;
#174 = APPROVAL_PERSON_ORGANIZATION ( #196, #169, #123 ) ;
#175 = DIRECTION ( 'NONE',  ( 1.000000000000000000, 0.000000000000000000, 0.000000000000000000 ) ) ;
#176 = APPROVAL_DATE_TIME ( #111, #84 ) ;
#177 = CARTESIAN_POINT ( 'NONE',  ( -5.000000000000000000, 0.000000000000000000, 5.000000000000000000 ) ) ;
#178 = APPROVAL ( #105, 'NEURÈENÝ' ) ;
#179 = DATE_AND_TIME ( #97, #239 ) ;
#180 = EDGE_LOOP ( 'NONE', ( #233, #144, #100, #221 ) ) ;
#181 = CYLINDRICAL_SURFACE ( 'NONE', #146, 5.000000000000000000 ) ;
#182 = FACE_OUTER_BOUND ( 'NONE', #186, .T. ) ;
#183 = DIRECTION ( 'NONE',  ( 0.000000000000000000, 0.000000000000000000, 1.000000000000000000 ) ) ;
#184 = CARTESIAN_POINT ( 'NONE',  ( -2.600000000000000089, 0.000000000000000000, 125.0000000000000000 ) ) ;
#185 = AXIS2_PLACEMENT_3D ( 'NONE', #212, #38, #238 ) ;
#186 = EDGE_LOOP ( 'NONE', ( #96, #209, #28, #166 ) ) ;
#187 = DIRECTION ( 'NONE',  ( -0.000000000000000000, -0.000000000000000000, -1.000000000000000000 ) ) ;
#188 = PERSON_AND_ORGANIZATION_ROLE ( 'creator' ) ;
#189 = ADVANCED_FACE ( 'NONE', ( #26 ), #37, .T. ) ;
#190 = VERTEX_POINT ( 'NONE', #217 ) ;
#191 = CC_DESIGN_PERSON_AND_ORGANIZATION_ASSIGNMENT ( #9, #249, ( #153 ) ) ;
#192 = AXIS2_PLACEMENT_3D ( 'NONE', #154, #41, #140 ) ;
#193 = ADVANCED_FACE ( 'NONE', ( #52, #165 ), #32, .T. ) ;
#194 = AXIS2_PLACEMENT_3D ( 'NONE', #246, #225, #46 ) ;
#195 = DIRECTION ( 'NONE',  ( 0.000000000000000000, 0.000000000000000000, 1.000000000000000000 ) ) ;
#196 = PERSON_AND_ORGANIZATION ( #254, #247 ) ;
#197 = EDGE_LOOP ( 'NONE', ( #65, #250, #50, #226 ) ) ;
#198 = CARTESIAN_POINT ( 'NONE',  ( 0.000000000000000000, 0.000000000000000000, 0.000000000000000000 ) ) ;
#199 = DIRECTION ( 'NONE',  ( 1.000000000000000000, 0.000000000000000000, 0.000000000000000000 ) ) ;
#200 = DATE_TIME_ROLE ( 'creation_date' ) ;
#201 = VERTEX_POINT ( 'NONE', #14 ) ;
#202 = DIRECTION ( 'NONE',  ( -1.000000000000000000, 0.000000000000000000, 0.000000000000000000 ) ) ;
#203 = VECTOR ( 'NONE', #187, 1000.000000000000000 ) ;
#204 = EDGE_LOOP ( 'NONE', ( #13, #11 ) ) ;
#205 = AXIS2_PLACEMENT_3D ( 'NONE', #49, #85, #253 ) ;
#206 = APPROVAL_STATUS ( 'not_yet_approved' ) ;
#207 = DIRECTION ( 'NONE',  ( 1.000000000000000000, 0.000000000000000000, -0.000000000000000000 ) ) ;
#208 = UNCERTAINTY_MEASURE_WITH_UNIT (LENGTH_MEASURE( 1.000000000000000082E-05 ), #60, 'distance_accuracy_value', 'NONE');
#209 = ORIENTED_EDGE ( 'NONE', *, *, #104, .T. ) ;
#210 = AXIS2_PLACEMENT_3D ( 'NONE', #136, #112, #199 ) ;
#211 = ADVANCED_FACE ( 'NONE', ( #182 ), #12, .T. ) ;
#212 = CARTESIAN_POINT ( 'NONE',  ( 0.000000000000000000, 0.000000000000000000, 5.000000000000000000 ) ) ;
#213 = CARTESIAN_POINT ( 'NONE',  ( 2.600000000000000089, 3.184081677783118191E-16, 125.0000000000000000 ) ) ;
#214 = APPROVAL_ROLE ( '' ) ;
#215 = DIRECTION ( 'NONE',  ( -0.000000000000000000, -0.000000000000000000, -1.000000000000000000 ) ) ;
#216 = CALENDAR_DATE ( 2023, 13, 2 ) ;
#217 = CARTESIAN_POINT ( 'NONE',  ( 5.000000000000000000, 6.123233995736766282E-16, 5.000000000000000000 ) ) ;
#218 = ADVANCED_BREP_SHAPE_REPRESENTATION ( '1241', ( #121, #88 ), #43 ) ;
#219 = DIRECTION ( 'NONE',  ( -0.000000000000000000, -0.000000000000000000, -1.000000000000000000 ) ) ;
#220 = DIRECTION ( 'NONE',  ( 0.000000000000000000, 0.000000000000000000, 1.000000000000000000 ) ) ;
#221 = ORIENTED_EDGE ( 'NONE', *, *, #1, .F. ) ;
#222 = COORDINATED_UNIVERSAL_TIME_OFFSET ( 1, 0, .AHEAD. ) ;
#223 = APPROVAL_STATUS ( 'not_yet_approved' ) ;
#224 = CARTESIAN_POINT ( 'NONE',  ( 0.000000000000000000, 0.000000000000000000, 125.0000000000000000 ) ) ;
#225 = DIRECTION ( 'NONE',  ( 0.000000000000000000, 0.000000000000000000, 1.000000000000000000 ) ) ;
#226 = ORIENTED_EDGE ( 'NONE', *, *, #243, .T. ) ;
#227 = CARTESIAN_POINT ( 'NONE',  ( 0.000000000000000000, 0.000000000000000000, 5.000000000000000000 ) ) ;
#228 = CC_DESIGN_PERSON_AND_ORGANIZATION_ASSIGNMENT ( #6, #188, ( #255 ) ) ;
#229 = DATE_AND_TIME ( #63, #231 ) ;
#230 = CIRCLE ( 'NONE', #252, 5.000000000000000000 ) ;
#231 = LOCAL_TIME ( 17, 4, 36.00000000000000000, #72 ) ;
#232 = DESIGN_CONTEXT ( 'detailed design', #152, 'design' ) ;
#233 = ORIENTED_EDGE ( 'NONE', *, *, #145, .F. ) ;
#234 = PERSON_AND_ORGANIZATION ( #254, #247 ) ;
#235 = EDGE_CURVE ( 'NONE', #10, #190, #51, .T. ) ;
#236 = LINE ( 'NONE', #53, #138 ) ;
#237 = CC_DESIGN_SECURITY_CLASSIFICATION ( #130, ( #255 ) ) ;
#238 = DIRECTION ( 'NONE',  ( 1.000000000000000000, 0.000000000000000000, 0.000000000000000000 ) ) ;
#239 = LOCAL_TIME ( 17, 4, 36.00000000000000000, #222 ) ;
#240 = PERSON_AND_ORGANIZATION_ROLE ( 'design_supplier' ) ;
#241 = FACE_OUTER_BOUND ( 'NONE', #57, .T. ) ;
#242 = CARTESIAN_POINT ( 'NONE',  ( -5.000000000000000000, 0.000000000000000000, 5.000000000000000000 ) ) ;
#243 = EDGE_CURVE ( 'NONE', #120, #20, #61, .T. ) ;
#244 = CARTESIAN_POINT ( 'NONE',  ( 0.000000000000000000, 0.000000000000000000, 125.0000000000000000 ) ) ;
#245 = FACE_OUTER_BOUND ( 'NONE', #180, .T. ) ;
#246 = CARTESIAN_POINT ( 'NONE',  ( 0.000000000000000000, 0.000000000000000000, 5.000000000000000000 ) ) ;
#247 = ORGANIZATION ( 'NEURÈENÝ', 'NEURÈENÝ', '' ) ;
#248 = DIRECTION ( 'NONE',  ( 1.000000000000000000, 0.000000000000000000, -0.000000000000000000 ) ) ;
#249 = PERSON_AND_ORGANIZATION_ROLE ( 'creator' ) ;
#250 = ORIENTED_EDGE ( 'NONE', *, *, #23, .F. ) ;
#251 = COORDINATED_UNIVERSAL_TIME_OFFSET ( 1, 0, .AHEAD. ) ;
#252 = AXIS2_PLACEMENT_3D ( 'NONE', #99, #220, #110 ) ;
#253 = DIRECTION ( 'NONE',  ( -1.000000000000000000, 0.000000000000000000, 0.000000000000000000 ) ) ;
#254 = PERSON ( 'NEURÈENÝ', 'NEURÈENÝ', 'NEURÈENÝ', ('NEURÈENÝ'), ('NEURÈENÝ'), ('NEURÈENÝ') ) ;
#255 = PRODUCT_DEFINITION_FORMATION_WITH_SPECIFIED_SOURCE ( 'LIBOVOLNÝ', '', #115, .NOT_KNOWN. ) ;
ENDSEC;
END-ISO-10303-21;
