ISO-10303-21;
HEADER;
FILE_DESCRIPTION (( 'STEP AP203' ),
    '1' );
FILE_NAME ('ae71.STEP',
    '2023-02-13T16:35:56',
    ( '' ),
    ( '' ),
    'SwSTEP 2.0',
    'SolidWorks 2019',
    '' );
FILE_SCHEMA (( 'CONFIG_CONTROL_DESIGN' ));
ENDSEC;

DATA;
#1 = ORIENTED_EDGE ( 'NONE', *, *, #204, .T. ) ;
#2 = LINE ( 'NONE', #80, #146 ) ;
#3 = CIRCLE ( 'NONE', #55, 2.000000000000000000 ) ;
#4 = AXIS2_PLACEMENT_3D ( 'NONE', #121, #6, #84 ) ;
#5 = DIRECTION ( 'NONE',  ( -1.000000000000000000, 0.000000000000000000, 0.000000000000000000 ) ) ;
#6 = DIRECTION ( 'NONE',  ( 0.000000000000000000, 0.000000000000000000, 1.000000000000000000 ) ) ;
#7 = CIRCLE ( 'NONE', #77, 4.000000000000000000 ) ;
#8 = LOCAL_TIME ( 17, 35, 56.00000000000000000, #247 ) ;
#9 = CARTESIAN_POINT ( 'NONE',  ( 2.000000000000000000, 2.449293598294706414E-16, 4.000000000000000000 ) ) ;
#10 = CARTESIAN_POINT ( 'NONE',  ( 0.000000000000000000, 0.000000000000000000, 4.000000000000000000 ) ) ;
#11 = APPROVAL_STATUS ( 'not_yet_approved' ) ;
#12 = PERSON_AND_ORGANIZATION_ROLE ( 'creator' ) ;
#13 = CIRCLE ( 'NONE', #214, 4.000000000000000000 ) ;
#14 = LOCAL_TIME ( 17, 35, 56.00000000000000000, #53 ) ;
#15 = PERSON_AND_ORGANIZATION_ROLE ( 'creator' ) ;
#16 = CARTESIAN_POINT ( 'NONE',  ( 0.000000000000000000, 0.000000000000000000, 630.0000000000000000 ) ) ;
#17 = DIRECTION ( 'NONE',  ( -0.000000000000000000, -0.000000000000000000, -1.000000000000000000 ) ) ;
#18 = EDGE_LOOP ( 'NONE', ( #160, #1, #20, #173 ) ) ;
#19 = AXIS2_PLACEMENT_3D ( 'NONE', #85, #124, #245 ) ;
#20 = ORIENTED_EDGE ( 'NONE', *, *, #170, .T. ) ;
#21 = DIRECTION ( 'NONE',  ( 0.000000000000000000, 0.000000000000000000, 1.000000000000000000 ) ) ;
#22 = ADVANCED_FACE ( 'NONE', ( #203 ), #57, .F. ) ;
#23 =( LENGTH_UNIT ( ) NAMED_UNIT ( * ) SI_UNIT ( .MILLI., .METRE. ) );
#24 = APPROVAL_PERSON_ORGANIZATION ( #171, #195, #69 ) ;
#25 = EDGE_CURVE ( 'NONE', #52, #220, #141, .T. ) ;
#26 = CARTESIAN_POINT ( 'NONE',  ( 0.000000000000000000, 0.000000000000000000, 4.000000000000000000 ) ) ;
#27 = CC_DESIGN_PERSON_AND_ORGANIZATION_ASSIGNMENT ( #169, #48, ( #183 ) ) ;
#28 = CARTESIAN_POINT ( 'NONE',  ( 0.000000000000000000, 0.000000000000000000, 630.0000000000000000 ) ) ;
#29 = CARTESIAN_POINT ( 'NONE',  ( -2.000000000000000000, 0.000000000000000000, 630.0000000000000000 ) ) ;
#30 = PRODUCT_DEFINITION_SHAPE ( 'NONE', 'NONE',  #99 ) ;
#31 = ORIENTED_EDGE ( 'NONE', *, *, #143, .T. ) ;
#32 = COORDINATED_UNIVERSAL_TIME_OFFSET ( 1, 0, .AHEAD. ) ;
#33 = ADVANCED_FACE ( 'NONE', ( #236 ), #216, .T. ) ;
#34 = VERTEX_POINT ( 'NONE', #162 ) ;
#35 = APPROVAL_PERSON_ORGANIZATION ( #88, #226, #246 ) ;
#36 = DATE_AND_TIME ( #76, #71 ) ;
#37 = CARTESIAN_POINT ( 'NONE',  ( 0.000000000000000000, 0.000000000000000000, 4.000000000000000000 ) ) ;
#38 = CC_DESIGN_APPROVAL ( #226, ( #215 ) ) ;
#39 = CARTESIAN_POINT ( 'NONE',  ( 4.000000000000000000, 4.898587196589412829E-16, 4.000000000000000000 ) ) ;
#40 = VERTEX_POINT ( 'NONE', #39 ) ;
#41 = EDGE_LOOP ( 'NONE', ( #250, #50 ) ) ;
#42 = AXIS2_PLACEMENT_3D ( 'NONE', #134, #60, #180 ) ;
#43 = ORIENTED_EDGE ( 'NONE', *, *, #137, .T. ) ;
#44 = DIRECTION ( 'NONE',  ( 1.000000000000000000, 0.000000000000000000, 0.000000000000000000 ) ) ;
#45 = CIRCLE ( 'NONE', #140, 4.000000000000000000 ) ;
#46 = FACE_OUTER_BOUND ( 'NONE', #194, .T. ) ;
#47 = CC_DESIGN_SECURITY_CLASSIFICATION ( #183, ( #215 ) ) ;
#48 = PERSON_AND_ORGANIZATION_ROLE ( 'classification_officer' ) ;
#49 = SHAPE_DEFINITION_REPRESENTATION ( #30, #221 ) ;
#50 = ORIENTED_EDGE ( 'NONE', *, *, #175, .F. ) ;
#51 = SECURITY_CLASSIFICATION_LEVEL ( 'unclassified' ) ;
#52 = VERTEX_POINT ( 'NONE', #239 ) ;
#53 = COORDINATED_UNIVERSAL_TIME_OFFSET ( 1, 0, .AHEAD. ) ;
#54 = AXIS2_PLACEMENT_3D ( 'NONE', #242, #243, #67 ) ;
#55 = AXIS2_PLACEMENT_3D ( 'NONE', #10, #66, #87 ) ;
#56 = CALENDAR_DATE ( 2023, 13, 2 ) ;
#57 = PLANE ( 'NONE',  #192 ) ;
#58 = ORIENTED_EDGE ( 'NONE', *, *, #199, .F. ) ;
#59 = ORIENTED_EDGE ( 'NONE', *, *, #70, .T. ) ;
#60 = DIRECTION ( 'NONE',  ( 0.000000000000000000, 0.000000000000000000, 1.000000000000000000 ) ) ;
#61 = CC_DESIGN_PERSON_AND_ORGANIZATION_ASSIGNMENT ( #154, #190, ( #125 ) ) ;
#62 = CARTESIAN_POINT ( 'NONE',  ( 0.000000000000000000, 0.000000000000000000, 0.000000000000000000 ) ) ;
#63 = LOCAL_TIME ( 17, 35, 56.00000000000000000, #32 ) ;
#64 = MANIFOLD_SOLID_BREP ( 'Pøidat vysunutím3', #229 ) ;
#65 = PLANE ( 'NONE',  #4 ) ;
#66 = DIRECTION ( 'NONE',  ( 0.000000000000000000, 0.000000000000000000, 1.000000000000000000 ) ) ;
#67 = DIRECTION ( 'NONE',  ( 1.000000000000000000, 0.000000000000000000, 0.000000000000000000 ) ) ;
#68 = DIRECTION ( 'NONE',  ( 1.000000000000000000, 0.000000000000000000, 0.000000000000000000 ) ) ;
#69 = APPROVAL_ROLE ( '' ) ;
#70 = EDGE_CURVE ( 'NONE', #34, #200, #13, .T. ) ;
#71 = LOCAL_TIME ( 17, 35, 56.00000000000000000, #230 ) ;
#72 = APPROVAL_STATUS ( 'not_yet_approved' ) ;
#73 = ORIENTED_EDGE ( 'NONE', *, *, #25, .F. ) ;
#74 = PERSON_AND_ORGANIZATION ( #201, #147 ) ;
#75 = EDGE_LOOP ( 'NONE', ( #138, #136 ) ) ;
#76 = CALENDAR_DATE ( 2023, 13, 2 ) ;
#77 = AXIS2_PLACEMENT_3D ( 'NONE', #144, #224, #68 ) ;
#78 = ORIENTED_EDGE ( 'NONE', *, *, #94, .F. ) ;
#79 = FACE_OUTER_BOUND ( 'NONE', #158, .T. ) ;
#80 = CARTESIAN_POINT ( 'NONE',  ( 4.000000000000000000, 4.898587196589412829E-16, 4.000000000000000000 ) ) ;
#81 = ORIENTED_EDGE ( 'NONE', *, *, #204, .F. ) ;
#82 = CARTESIAN_POINT ( 'NONE',  ( -2.000000000000000000, 0.000000000000000000, 630.0000000000000000 ) ) ;
#83 = AXIS2_PLACEMENT_3D ( 'NONE', #26, #223, #5 ) ;
#84 = DIRECTION ( 'NONE',  ( 1.000000000000000000, 0.000000000000000000, -0.000000000000000000 ) ) ;
#85 = CARTESIAN_POINT ( 'NONE',  ( 0.000000000000000000, 0.000000000000000000, 4.000000000000000000 ) ) ;
#86 = AXIS2_PLACEMENT_3D ( 'NONE', #102, #207, #166 ) ;
#87 = DIRECTION ( 'NONE',  ( 1.000000000000000000, 0.000000000000000000, 0.000000000000000000 ) ) ;
#88 = PERSON_AND_ORGANIZATION ( #201, #147 ) ;
#89 = PERSON_AND_ORGANIZATION ( #201, #147 ) ;
#90 = CC_DESIGN_PERSON_AND_ORGANIZATION_ASSIGNMENT ( #89, #12, ( #99 ) ) ;
#91 = DATE_TIME_ROLE ( 'creation_date' ) ;
#92 = PERSON_AND_ORGANIZATION ( #201, #147 ) ;
#93 = EDGE_CURVE ( 'NONE', #157, #34, #219, .T. ) ;
#94 = EDGE_CURVE ( 'NONE', #157, #40, #45, .T. ) ;
#95 = DIRECTION ( 'NONE',  ( 0.000000000000000000, 0.000000000000000000, 1.000000000000000000 ) ) ;
#96 = ORIENTED_EDGE ( 'NONE', *, *, #93, .F. ) ;
#97 = DIRECTION ( 'NONE',  ( 1.000000000000000000, 0.000000000000000000, -0.000000000000000000 ) ) ;
#98 =( GEOMETRIC_REPRESENTATION_CONTEXT ( 3 ) GLOBAL_UNCERTAINTY_ASSIGNED_CONTEXT ( ( #172 ) ) GLOBAL_UNIT_ASSIGNED_CONTEXT ( ( #23, #105, #107 ) ) REPRESENTATION_CONTEXT ( 'NONE', 'WORKASPACE' ) );
#99 = PRODUCT_DEFINITION ( 'NEZNÁMÝ', '', #215, #251 ) ;
#100 = CARTESIAN_POINT ( 'NONE',  ( 0.000000000000000000, 0.000000000000000000, 0.000000000000000000 ) ) ;
#101 = ORIENTED_EDGE ( 'NONE', *, *, #175, .T. ) ;
#102 = CARTESIAN_POINT ( 'NONE',  ( 0.000000000000000000, 0.000000000000000000, 630.0000000000000000 ) ) ;
#103 = APPROVAL_PERSON_ORGANIZATION ( #129, #218, #150 ) ;
#104 = CARTESIAN_POINT ( 'NONE',  ( 2.000000000000000000, 2.449293598294706414E-16, 630.0000000000000000 ) ) ;
#105 =( NAMED_UNIT ( * ) PLANE_ANGLE_UNIT ( ) SI_UNIT ( $, .RADIAN. ) );
#106 = AXIS2_PLACEMENT_3D ( 'NONE', #176, #133, #202 ) ;
#107 =( NAMED_UNIT ( * ) SI_UNIT ( $, .STERADIAN. ) SOLID_ANGLE_UNIT ( ) );
#108 = AXIS2_PLACEMENT_3D ( 'NONE', #28, #163, #182 ) ;
#109 = APPROVAL_DATE_TIME ( #132, #218 ) ;
#110 = ORIENTED_EDGE ( 'NONE', *, *, #137, .F. ) ;
#111 = APPROVAL_DATE_TIME ( #36, #195 ) ;
#112 = DATE_AND_TIME ( #56, #187 ) ;
#113 = AXIS2_PLACEMENT_3D ( 'NONE', #16, #95, #177 ) ;
#114 = CC_DESIGN_APPROVAL ( #195, ( #183 ) ) ;
#115 = DIRECTION ( 'NONE',  ( 0.000000000000000000, 0.000000000000000000, 1.000000000000000000 ) ) ;
#116 = DIRECTION ( 'NONE',  ( 0.000000000000000000, 0.000000000000000000, 1.000000000000000000 ) ) ;
#117 = ORIENTED_EDGE ( 'NONE', *, *, #209, .T. ) ;
#118 = ORIENTED_EDGE ( 'NONE', *, *, #25, .T. ) ;
#119 = VECTOR ( 'NONE', #122, 1000.000000000000000 ) ;
#120 = DIRECTION ( 'NONE',  ( 1.000000000000000000, 0.000000000000000000, 0.000000000000000000 ) ) ;
#121 = CARTESIAN_POINT ( 'NONE',  ( 0.000000000000000000, 0.000000000000000000, 4.000000000000000000 ) ) ;
#122 = DIRECTION ( 'NONE',  ( -0.000000000000000000, -0.000000000000000000, -1.000000000000000000 ) ) ;
#123 = LINE ( 'NONE', #104, #233 ) ;
#124 = DIRECTION ( 'NONE',  ( -0.000000000000000000, -0.000000000000000000, -1.000000000000000000 ) ) ;
#125 = PRODUCT ( 'ae71', 'ae71', '', ( #188 ) ) ;
#126 = CYLINDRICAL_SURFACE ( 'NONE', #108, 2.000000000000000000 ) ;
#127 = CIRCLE ( 'NONE', #113, 2.000000000000000000 ) ;
#128 = DATE_AND_TIME ( #249, #63 ) ;
#129 = PERSON_AND_ORGANIZATION ( #201, #147 ) ;
#130 = VERTEX_POINT ( 'NONE', #179 ) ;
#131 = CALENDAR_DATE ( 2023, 13, 2 ) ;
#132 = DATE_AND_TIME ( #131, #14 ) ;
#133 = DIRECTION ( 'NONE',  ( -0.000000000000000000, -0.000000000000000000, -1.000000000000000000 ) ) ;
#134 = CARTESIAN_POINT ( 'NONE',  ( 0.000000000000000000, 0.000000000000000000, 4.000000000000000000 ) ) ;
#135 = CC_DESIGN_PERSON_AND_ORGANIZATION_ASSIGNMENT ( #92, #156, ( #215 ) ) ;
#136 = ORIENTED_EDGE ( 'NONE', *, *, #152, .T. ) ;
#137 = EDGE_CURVE ( 'NONE', #40, #200, #2, .T. ) ;
#138 = ORIENTED_EDGE ( 'NONE', *, *, #199, .T. ) ;
#139 = VERTEX_POINT ( 'NONE', #82 ) ;
#140 = AXIS2_PLACEMENT_3D ( 'NONE', #213, #21, #181 ) ;
#141 = CIRCLE ( 'NONE', #42, 2.000000000000000000 ) ;
#142 = PLANE ( 'NONE',  #86 ) ;
#143 = EDGE_CURVE ( 'NONE', #40, #157, #248, .T. ) ;
#144 = CARTESIAN_POINT ( 'NONE',  ( 0.000000000000000000, 0.000000000000000000, 0.000000000000000000 ) ) ;
#145 = FACE_OUTER_BOUND ( 'NONE', #253, .T. ) ;
#146 = VECTOR ( 'NONE', #17, 1000.000000000000000 ) ;
#147 = ORGANIZATION ( 'NEURÈENÝ', 'NEURÈENÝ', '' ) ;
#148 = FACE_OUTER_BOUND ( 'NONE', #75, .T. ) ;
#149 = APPROVAL_DATE_TIME ( #128, #226 ) ;
#150 = APPROVAL_ROLE ( '' ) ;
#151 = EDGE_LOOP ( 'NONE', ( #81, #58, #117, #118 ) ) ;
#152 = EDGE_CURVE ( 'NONE', #130, #139, #127, .T. ) ;
#153 = DATE_TIME_ROLE ( 'classification_date' ) ;
#154 = PERSON_AND_ORGANIZATION ( #201, #147 ) ;
#155 = AXIS2_PLACEMENT_3D ( 'NONE', #186, #240, #44 ) ;
#156 = PERSON_AND_ORGANIZATION_ROLE ( 'design_supplier' ) ;
#157 = VERTEX_POINT ( 'NONE', #254 ) ;
#158 = EDGE_LOOP ( 'NONE', ( #222, #43, #101, #96 ) ) ;
#159 = CC_DESIGN_APPROVAL ( #218, ( #99 ) ) ;
#160 = ORIENTED_EDGE ( 'NONE', *, *, #152, .F. ) ;
#161 = ORIENTED_EDGE ( 'NONE', *, *, #93, .T. ) ;
#162 = CARTESIAN_POINT ( 'NONE',  ( -4.000000000000000000, 0.000000000000000000, 0.000000000000000000 ) ) ;
#163 = DIRECTION ( 'NONE',  ( -0.000000000000000000, -0.000000000000000000, -1.000000000000000000 ) ) ;
#164 = ADVANCED_FACE ( 'NONE', ( #79 ), #208, .T. ) ;
#165 = LINE ( 'NONE', #29, #119 ) ;
#166 = DIRECTION ( 'NONE',  ( 1.000000000000000000, 0.000000000000000000, -0.000000000000000000 ) ) ;
#167 = APPROVAL_STATUS ( 'not_yet_approved' ) ;
#168 = CC_DESIGN_PERSON_AND_ORGANIZATION_ASSIGNMENT ( #74, #15, ( #215 ) ) ;
#169 = PERSON_AND_ORGANIZATION ( #201, #147 ) ;
#170 = EDGE_CURVE ( 'NONE', #220, #52, #3, .T. ) ;
#171 = PERSON_AND_ORGANIZATION ( #201, #147 ) ;
#172 = UNCERTAINTY_MEASURE_WITH_UNIT (LENGTH_MEASURE( 1.000000000000000082E-05 ), #23, 'distance_accuracy_value', 'NONE');
#173 = ORIENTED_EDGE ( 'NONE', *, *, #209, .F. ) ;
#174 = APPLICATION_CONTEXT ( 'configuration controlled 3d designs of mechanical parts and assemblies' ) ;
#175 = EDGE_CURVE ( 'NONE', #200, #34, #7, .T. ) ;
#176 = CARTESIAN_POINT ( 'NONE',  ( 0.000000000000000000, 0.000000000000000000, 630.0000000000000000 ) ) ;
#177 = DIRECTION ( 'NONE',  ( 1.000000000000000000, 0.000000000000000000, 0.000000000000000000 ) ) ;
#178 = ADVANCED_FACE ( 'NONE', ( #148 ), #142, .T. ) ;
#179 = CARTESIAN_POINT ( 'NONE',  ( 2.000000000000000000, 2.449293598294706414E-16, 630.0000000000000000 ) ) ;
#180 = DIRECTION ( 'NONE',  ( 1.000000000000000000, 0.000000000000000000, 0.000000000000000000 ) ) ;
#181 = DIRECTION ( 'NONE',  ( 1.000000000000000000, 0.000000000000000000, 0.000000000000000000 ) ) ;
#182 = DIRECTION ( 'NONE',  ( -1.000000000000000000, 0.000000000000000000, 0.000000000000000000 ) ) ;
#183 = SECURITY_CLASSIFICATION ( '', '', #51 ) ;
#184 = APPLICATION_PROTOCOL_DEFINITION ( 'international standard', 'config_control_design', 1994, #193 ) ;
#185 = FACE_BOUND ( 'NONE', #255, .T. ) ;
#186 = CARTESIAN_POINT ( 'NONE',  ( 0.000000000000000000, 0.000000000000000000, 630.0000000000000000 ) ) ;
#187 = LOCAL_TIME ( 17, 35, 56.00000000000000000, #234 ) ;
#188 = MECHANICAL_CONTEXT ( 'NONE', #193, 'mechanical' ) ;
#189 = ADVANCED_FACE ( 'NONE', ( #227 ), #126, .T. ) ;
#190 = PERSON_AND_ORGANIZATION_ROLE ( 'design_owner' ) ;
#191 = ADVANCED_FACE ( 'NONE', ( #145 ), #225, .T. ) ;
#192 = AXIS2_PLACEMENT_3D ( 'NONE', #100, #237, #97 ) ;
#193 = APPLICATION_CONTEXT ( 'configuration controlled 3d designs of mechanical parts and assemblies' ) ;
#194 = EDGE_LOOP ( 'NONE', ( #210, #31 ) ) ;
#195 = APPROVAL ( #72, 'NEURÈENÝ' ) ;
#196 = DATE_AND_TIME ( #212, #8 ) ;
#197 = CC_DESIGN_DATE_AND_TIME_ASSIGNMENT ( #196, #153, ( #183 ) ) ;
#198 = DIRECTION ( 'NONE',  ( 1.000000000000000000, 0.000000000000000000, 0.000000000000000000 ) ) ;
#199 = EDGE_CURVE ( 'NONE', #139, #130, #211, .T. ) ;
#200 = VERTEX_POINT ( 'NONE', #241 ) ;
#201 = PERSON ( 'NEURÈENÝ', 'NEURÈENÝ', 'NEURÈENÝ', ('NEURÈENÝ'), ('NEURÈENÝ'), ('NEURÈENÝ') ) ;
#202 = DIRECTION ( 'NONE',  ( -1.000000000000000000, 0.000000000000000000, 0.000000000000000000 ) ) ;
#203 = FACE_OUTER_BOUND ( 'NONE', #41, .T. ) ;
#204 = EDGE_CURVE ( 'NONE', #130, #220, #123, .T. ) ;
#205 = CARTESIAN_POINT ( 'NONE',  ( -4.000000000000000000, 0.000000000000000000, 4.000000000000000000 ) ) ;
#206 = ADVANCED_FACE ( 'NONE', ( #185, #46 ), #65, .T. ) ;
#207 = DIRECTION ( 'NONE',  ( 0.000000000000000000, 0.000000000000000000, 1.000000000000000000 ) ) ;
#208 = CYLINDRICAL_SURFACE ( 'NONE', #19, 4.000000000000000000 ) ;
#209 = EDGE_CURVE ( 'NONE', #139, #52, #165, .T. ) ;
#210 = ORIENTED_EDGE ( 'NONE', *, *, #94, .T. ) ;
#211 = CIRCLE ( 'NONE', #155, 2.000000000000000000 ) ;
#212 = CALENDAR_DATE ( 2023, 13, 2 ) ;
#213 = CARTESIAN_POINT ( 'NONE',  ( 0.000000000000000000, 0.000000000000000000, 4.000000000000000000 ) ) ;
#214 = AXIS2_PLACEMENT_3D ( 'NONE', #62, #116, #120 ) ;
#215 = PRODUCT_DEFINITION_FORMATION_WITH_SPECIFIED_SOURCE ( 'LIBOVOLNÝ', '', #125, .NOT_KNOWN. ) ;
#216 = CYLINDRICAL_SURFACE ( 'NONE', #106, 2.000000000000000000 ) ;
#217 = CC_DESIGN_DATE_AND_TIME_ASSIGNMENT ( #112, #91, ( #99 ) ) ;
#218 = APPROVAL ( #11, 'NEURÈENÝ' ) ;
#219 = LINE ( 'NONE', #205, #252 ) ;
#220 = VERTEX_POINT ( 'NONE', #9 ) ;
#221 = ADVANCED_BREP_SHAPE_REPRESENTATION ( 'ae71', ( #64, #54 ), #98 ) ;
#222 = ORIENTED_EDGE ( 'NONE', *, *, #143, .F. ) ;
#223 = DIRECTION ( 'NONE',  ( -0.000000000000000000, -0.000000000000000000, -1.000000000000000000 ) ) ;
#224 = DIRECTION ( 'NONE',  ( 0.000000000000000000, 0.000000000000000000, 1.000000000000000000 ) ) ;
#225 = CYLINDRICAL_SURFACE ( 'NONE', #83, 4.000000000000000000 ) ;
#226 = APPROVAL ( #167, 'NEURÈENÝ' ) ;
#227 = FACE_OUTER_BOUND ( 'NONE', #151, .T. ) ;
#228 = DIRECTION ( 'NONE',  ( -0.000000000000000000, -0.000000000000000000, -1.000000000000000000 ) ) ;
#229 = CLOSED_SHELL ( 'NONE', ( #33, #164, #191, #206, #22, #189, #178 ) ) ;
#230 = COORDINATED_UNIVERSAL_TIME_OFFSET ( 1, 0, .AHEAD. ) ;
#231 = PRODUCT_RELATED_PRODUCT_CATEGORY ( 'detail', '', ( #125 ) ) ;
#232 = APPLICATION_PROTOCOL_DEFINITION ( 'international standard', 'config_control_design', 1994, #174 ) ;
#233 = VECTOR ( 'NONE', #228, 1000.000000000000000 ) ;
#234 = COORDINATED_UNIVERSAL_TIME_OFFSET ( 1, 0, .AHEAD. ) ;
#235 = DIRECTION ( 'NONE',  ( -0.000000000000000000, -0.000000000000000000, -1.000000000000000000 ) ) ;
#236 = FACE_OUTER_BOUND ( 'NONE', #18, .T. ) ;
#237 = DIRECTION ( 'NONE',  ( 0.000000000000000000, 0.000000000000000000, 1.000000000000000000 ) ) ;
#238 = ORIENTED_EDGE ( 'NONE', *, *, #170, .F. ) ;
#239 = CARTESIAN_POINT ( 'NONE',  ( -2.000000000000000000, 0.000000000000000000, 4.000000000000000000 ) ) ;
#240 = DIRECTION ( 'NONE',  ( 0.000000000000000000, 0.000000000000000000, 1.000000000000000000 ) ) ;
#241 = CARTESIAN_POINT ( 'NONE',  ( 4.000000000000000000, 4.898587196589412829E-16, 0.000000000000000000 ) ) ;
#242 = CARTESIAN_POINT ( 'NONE',  ( 0.000000000000000000, 0.000000000000000000, 0.000000000000000000 ) ) ;
#243 = DIRECTION ( 'NONE',  ( 0.000000000000000000, 0.000000000000000000, 1.000000000000000000 ) ) ;
#244 = AXIS2_PLACEMENT_3D ( 'NONE', #37, #115, #198 ) ;
#245 = DIRECTION ( 'NONE',  ( -1.000000000000000000, 0.000000000000000000, 0.000000000000000000 ) ) ;
#246 = APPROVAL_ROLE ( '' ) ;
#247 = COORDINATED_UNIVERSAL_TIME_OFFSET ( 1, 0, .AHEAD. ) ;
#248 = CIRCLE ( 'NONE', #244, 4.000000000000000000 ) ;
#249 = CALENDAR_DATE ( 2023, 13, 2 ) ;
#250 = ORIENTED_EDGE ( 'NONE', *, *, #70, .F. ) ;
#251 = DESIGN_CONTEXT ( 'detailed design', #174, 'design' ) ;
#252 = VECTOR ( 'NONE', #235, 1000.000000000000000 ) ;
#253 = EDGE_LOOP ( 'NONE', ( #110, #78, #161, #59 ) ) ;
#254 = CARTESIAN_POINT ( 'NONE',  ( -4.000000000000000000, 0.000000000000000000, 4.000000000000000000 ) ) ;
#255 = EDGE_LOOP ( 'NONE', ( #73, #238 ) ) ;
ENDSEC;
END-ISO-10303-21;
