ISO-10303-21;
HEADER;
FILE_DESCRIPTION (( 'STEP AP203' ),
    '1' );
FILE_NAME ('1ee3.STEP',
    '2023-02-13T13:45:41',
    ( '' ),
    ( '' ),
    'SwSTEP 2.0',
    'SolidWorks 2019',
    '' );
FILE_SCHEMA (( 'CONFIG_CONTROL_DESIGN' ));
ENDSEC;

DATA;
#1 = FACE_OUTER_BOUND ( 'NONE', #207, .T. ) ;
#2 = APPROVAL_DATE_TIME ( #40, #111 ) ;
#3 = EDGE_CURVE ( 'NONE', #191, #249, #70, .T. ) ;
#4 = PERSON_AND_ORGANIZATION ( #138, #255 ) ;
#5 = CARTESIAN_POINT ( 'NONE',  ( -7.000000000000000000, 0.000000000000000000, 6.500000000000000000 ) ) ;
#6 = LOCAL_TIME ( 14, 45, 41.00000000000000000, #90 ) ;
#7 = EDGE_CURVE ( 'NONE', #158, #193, #36, .T. ) ;
#8 = DIRECTION ( 'NONE',  ( -1.000000000000000000, 0.000000000000000000, 0.000000000000000000 ) ) ;
#9 = CARTESIAN_POINT ( 'NONE',  ( 0.000000000000000000, 0.000000000000000000, 0.000000000000000000 ) ) ;
#10 = DIRECTION ( 'NONE',  ( -0.000000000000000000, -0.000000000000000000, -1.000000000000000000 ) ) ;
#11 = PERSON_AND_ORGANIZATION ( #138, #255 ) ;
#12 = ORIENTED_EDGE ( 'NONE', *, *, #199, .T. ) ;
#13 = LINE ( 'NONE', #71, #173 ) ;
#14 = VECTOR ( 'NONE', #161, 1000.000000000000000 ) ;
#15 = DIRECTION ( 'NONE',  ( 0.000000000000000000, 0.000000000000000000, 1.000000000000000000 ) ) ;
#16 = VERTEX_POINT ( 'NONE', #166 ) ;
#17 = AXIS2_PLACEMENT_3D ( 'NONE', #83, #246, #196 ) ;
#18 = CC_DESIGN_DATE_AND_TIME_ASSIGNMENT ( #145, #241, ( #62 ) ) ;
#19 = FACE_OUTER_BOUND ( 'NONE', #230, .T. ) ;
#20 = APPROVAL ( #65, 'NEURÈENÝ' ) ;
#21 = LOCAL_TIME ( 14, 45, 41.00000000000000000, #92 ) ;
#22 = CYLINDRICAL_SURFACE ( 'NONE', #137, 7.000000000000000000 ) ;
#23 = PRODUCT ( '1ee3', '1ee3', '', ( #154 ) ) ;
#24 = DIRECTION ( 'NONE',  ( -0.000000000000000000, -0.000000000000000000, -1.000000000000000000 ) ) ;
#25 = CARTESIAN_POINT ( 'NONE',  ( -7.000000000000000000, 0.000000000000000000, 0.000000000000000000 ) ) ;
#26 = VERTEX_POINT ( 'NONE', #188 ) ;
#27 = APPROVAL ( #224, 'NEURÈENÝ' ) ;
#28 = DIRECTION ( 'NONE',  ( 1.000000000000000000, 0.000000000000000000, -0.000000000000000000 ) ) ;
#29 = AXIS2_PLACEMENT_3D ( 'NONE', #9, #247, #120 ) ;
#30 = CARTESIAN_POINT ( 'NONE',  ( 4.500000000000000888, 5.510910596163088569E-16, 315.0000000000000000 ) ) ;
#31 = EDGE_LOOP ( 'NONE', ( #243, #127, #229, #214 ) ) ;
#32 = EDGE_CURVE ( 'NONE', #158, #143, #58, .T. ) ;
#33 = ORIENTED_EDGE ( 'NONE', *, *, #122, .T. ) ;
#34 = DIRECTION ( 'NONE',  ( 0.000000000000000000, 0.000000000000000000, 1.000000000000000000 ) ) ;
#35 = CALENDAR_DATE ( 2023, 13, 2 ) ;
#36 = CIRCLE ( 'NONE', #87, 4.500000000000000888 ) ;
#37 = ADVANCED_FACE ( 'NONE', ( #74 ), #108, .F. ) ;
#38 = DIRECTION ( 'NONE',  ( 0.000000000000000000, 0.000000000000000000, 1.000000000000000000 ) ) ;
#39 = DIRECTION ( 'NONE',  ( 1.000000000000000000, 0.000000000000000000, 0.000000000000000000 ) ) ;
#40 = DATE_AND_TIME ( #168, #21 ) ;
#41 = ADVANCED_FACE ( 'NONE', ( #19 ), #125, .T. ) ;
#42 = DIRECTION ( 'NONE',  ( -0.000000000000000000, -0.000000000000000000, -1.000000000000000000 ) ) ;
#43 = DIRECTION ( 'NONE',  ( 0.000000000000000000, 0.000000000000000000, 1.000000000000000000 ) ) ;
#44 = APPLICATION_PROTOCOL_DEFINITION ( 'international standard', 'config_control_design', 1994, #169 ) ;
#45 = ORIENTED_EDGE ( 'NONE', *, *, #89, .F. ) ;
#46 = CIRCLE ( 'NONE', #129, 7.000000000000000000 ) ;
#47 = CARTESIAN_POINT ( 'NONE',  ( 7.000000000000000000, 8.572527594031471218E-16, 6.500000000000000000 ) ) ;
#48 = CC_DESIGN_DATE_AND_TIME_ASSIGNMENT ( #240, #81, ( #84 ) ) ;
#49 = ORIENTED_EDGE ( 'NONE', *, *, #89, .T. ) ;
#50 = DIRECTION ( 'NONE',  ( 0.000000000000000000, 0.000000000000000000, 1.000000000000000000 ) ) ;
#51 = UNCERTAINTY_MEASURE_WITH_UNIT (LENGTH_MEASURE( 1.000000000000000082E-05 ), #239, 'distance_accuracy_value', 'NONE');
#52 = ORIENTED_EDGE ( 'NONE', *, *, #7, .T. ) ;
#53 = CYLINDRICAL_SURFACE ( 'NONE', #248, 4.500000000000000888 ) ;
#54 = ORIENTED_EDGE ( 'NONE', *, *, #209, .T. ) ;
#55 = EDGE_CURVE ( 'NONE', #26, #143, #93, .T. ) ;
#56 = CARTESIAN_POINT ( 'NONE',  ( 0.000000000000000000, 0.000000000000000000, 315.0000000000000000 ) ) ;
#57 = ADVANCED_FACE ( 'NONE', ( #98 ), #53, .T. ) ;
#58 = LINE ( 'NONE', #30, #14 ) ;
#59 = PERSON_AND_ORGANIZATION ( #138, #255 ) ;
#60 = AXIS2_PLACEMENT_3D ( 'NONE', #159, #50, #28 ) ;
#61 = PRODUCT_DEFINITION_SHAPE ( 'NONE', 'NONE',  #62 ) ;
#62 = PRODUCT_DEFINITION ( 'NEZNÁMÝ', '', #68, #164 ) ;
#63 = DATE_AND_TIME ( #198, #6 ) ;
#64 = APPROVAL_DATE_TIME ( #63, #27 ) ;
#65 = APPROVAL_STATUS ( 'not_yet_approved' ) ;
#66 = PERSON_AND_ORGANIZATION_ROLE ( 'classification_officer' ) ;
#67 = COORDINATED_UNIVERSAL_TIME_OFFSET ( 1, 0, .AHEAD. ) ;
#68 = PRODUCT_DEFINITION_FORMATION_WITH_SPECIFIED_SOURCE ( 'LIBOVOLNÝ', '', #23, .NOT_KNOWN. ) ;
#69 = DIRECTION ( 'NONE',  ( 1.000000000000000000, 0.000000000000000000, 0.000000000000000000 ) ) ;
#70 = CIRCLE ( 'NONE', #217, 7.000000000000000000 ) ;
#71 = CARTESIAN_POINT ( 'NONE',  ( -7.000000000000000000, 0.000000000000000000, 6.500000000000000000 ) ) ;
#72 = ADVANCED_FACE ( 'NONE', ( #250 ), #206, .T. ) ;
#73 = DIRECTION ( 'NONE',  ( 0.000000000000000000, 0.000000000000000000, 1.000000000000000000 ) ) ;
#74 = FACE_OUTER_BOUND ( 'NONE', #210, .T. ) ;
#75 = PERSON_AND_ORGANIZATION ( #138, #255 ) ;
#76 = AXIS2_PLACEMENT_3D ( 'NONE', #163, #212, #100 ) ;
#77 = CC_DESIGN_PERSON_AND_ORGANIZATION_ASSIGNMENT ( #59, #213, ( #68 ) ) ;
#78 = PERSON_AND_ORGANIZATION ( #138, #255 ) ;
#79 = LOCAL_TIME ( 14, 45, 41.00000000000000000, #67 ) ;
#80 = DIRECTION ( 'NONE',  ( -0.000000000000000000, -0.000000000000000000, -1.000000000000000000 ) ) ;
#81 = DATE_TIME_ROLE ( 'classification_date' ) ;
#82 = DIRECTION ( 'NONE',  ( 1.000000000000000000, 0.000000000000000000, 0.000000000000000000 ) ) ;
#83 = CARTESIAN_POINT ( 'NONE',  ( 0.000000000000000000, 0.000000000000000000, 6.500000000000000000 ) ) ;
#84 = SECURITY_CLASSIFICATION ( '', '', #134 ) ;
#85 = ORIENTED_EDGE ( 'NONE', *, *, #144, .T. ) ;
#86 = DIRECTION ( 'NONE',  ( -1.000000000000000000, 0.000000000000000000, 0.000000000000000000 ) ) ;
#87 = AXIS2_PLACEMENT_3D ( 'NONE', #56, #34, #187 ) ;
#88 = PERSON_AND_ORGANIZATION_ROLE ( 'creator' ) ;
#89 = EDGE_CURVE ( 'NONE', #249, #226, #13, .T. ) ;
#90 = COORDINATED_UNIVERSAL_TIME_OFFSET ( 1, 0, .AHEAD. ) ;
#91 = PERSON_AND_ORGANIZATION_ROLE ( 'design_supplier' ) ;
#92 = COORDINATED_UNIVERSAL_TIME_OFFSET ( 1, 0, .AHEAD. ) ;
#93 = CIRCLE ( 'NONE', #140, 4.500000000000000888 ) ;
#94 = DIRECTION ( 'NONE',  ( 0.000000000000000000, 0.000000000000000000, 1.000000000000000000 ) ) ;
#95 = APPROVAL_PERSON_ORGANIZATION ( #75, #111, #151 ) ;
#96 = AXIS2_PLACEMENT_3D ( 'NONE', #128, #73, #39 ) ;
#97 = FACE_BOUND ( 'NONE', #146, .T. ) ;
#98 = FACE_OUTER_BOUND ( 'NONE', #31, .T. ) ;
#99 = CC_DESIGN_PERSON_AND_ORGANIZATION_ASSIGNMENT ( #11, #91, ( #68 ) ) ;
#100 = DIRECTION ( 'NONE',  ( -1.000000000000000000, 0.000000000000000000, 0.000000000000000000 ) ) ;
#101 = ORIENTED_EDGE ( 'NONE', *, *, #135, .T. ) ;
#102 = ORIENTED_EDGE ( 'NONE', *, *, #209, .F. ) ;
#103 = LOCAL_TIME ( 14, 45, 41.00000000000000000, #236 ) ;
#104 = AXIS2_PLACEMENT_3D ( 'NONE', #110, #237, #204 ) ;
#105 = DIRECTION ( 'NONE',  ( 1.000000000000000000, 0.000000000000000000, 0.000000000000000000 ) ) ;
#106 = AXIS2_PLACEMENT_3D ( 'NONE', #148, #15, #253 ) ;
#107 = DATE_AND_TIME ( #35, #175 ) ;
#108 = PLANE ( 'NONE',  #106 ) ;
#109 = CC_DESIGN_PERSON_AND_ORGANIZATION_ASSIGNMENT ( #112, #88, ( #62 ) ) ;
#110 = CARTESIAN_POINT ( 'NONE',  ( 0.000000000000000000, 0.000000000000000000, 6.500000000000000000 ) ) ;
#111 = APPROVAL ( #221, 'NEURÈENÝ' ) ;
#112 = PERSON_AND_ORGANIZATION ( #138, #255 ) ;
#113 =( NAMED_UNIT ( * ) PLANE_ANGLE_UNIT ( ) SI_UNIT ( $, .RADIAN. ) );
#114 = AXIS2_PLACEMENT_3D ( 'NONE', #121, #157, #69 ) ;
#115 = PERSON_AND_ORGANIZATION ( #138, #255 ) ;
#116 = CARTESIAN_POINT ( 'NONE',  ( -4.500000000000000888, 0.000000000000000000, 315.0000000000000000 ) ) ;
#117 = CARTESIAN_POINT ( 'NONE',  ( 4.500000000000000888, 5.510910596163088569E-16, 315.0000000000000000 ) ) ;
#118 = AXIS2_PLACEMENT_3D ( 'NONE', #153, #80, #8 ) ;
#119 = PERSON_AND_ORGANIZATION_ROLE ( 'design_owner' ) ;
#120 = DIRECTION ( 'NONE',  ( 1.000000000000000000, 0.000000000000000000, 0.000000000000000000 ) ) ;
#121 = CARTESIAN_POINT ( 'NONE',  ( 0.000000000000000000, 0.000000000000000000, 315.0000000000000000 ) ) ;
#122 = EDGE_CURVE ( 'NONE', #191, #16, #208, .T. ) ;
#123 =( GEOMETRIC_REPRESENTATION_CONTEXT ( 3 ) GLOBAL_UNCERTAINTY_ASSIGNED_CONTEXT ( ( #51 ) ) GLOBAL_UNIT_ASSIGNED_CONTEXT ( ( #239, #113, #215 ) ) REPRESENTATION_CONTEXT ( 'NONE', 'WORKASPACE' ) );
#124 = ORIENTED_EDGE ( 'NONE', *, *, #144, .F. ) ;
#125 = CYLINDRICAL_SURFACE ( 'NONE', #76, 7.000000000000000000 ) ;
#126 = CARTESIAN_POINT ( 'NONE',  ( 0.000000000000000000, 0.000000000000000000, 6.500000000000000000 ) ) ;
#127 = ORIENTED_EDGE ( 'NONE', *, *, #32, .T. ) ;
#128 = CARTESIAN_POINT ( 'NONE',  ( 0.000000000000000000, 0.000000000000000000, 6.500000000000000000 ) ) ;
#129 = AXIS2_PLACEMENT_3D ( 'NONE', #179, #94, #82 ) ;
#130 = APPLICATION_CONTEXT ( 'configuration controlled 3d designs of mechanical parts and assemblies' ) ;
#131 = CALENDAR_DATE ( 2023, 13, 2 ) ;
#132 = CC_DESIGN_APPROVAL ( #111, ( #62 ) ) ;
#133 = APPROVAL_ROLE ( '' ) ;
#134 = SECURITY_CLASSIFICATION_LEVEL ( 'unclassified' ) ;
#135 = EDGE_CURVE ( 'NONE', #193, #158, #201, .T. ) ;
#136 = CARTESIAN_POINT ( 'NONE',  ( 0.000000000000000000, 0.000000000000000000, 6.500000000000000000 ) ) ;
#137 = AXIS2_PLACEMENT_3D ( 'NONE', #136, #42, #178 ) ;
#138 = PERSON ( 'NEURÈENÝ', 'NEURÈENÝ', 'NEURÈENÝ', ('NEURÈENÝ'), ('NEURÈENÝ'), ('NEURÈENÝ') ) ;
#139 = DIRECTION ( 'NONE',  ( -0.000000000000000000, -0.000000000000000000, -1.000000000000000000 ) ) ;
#140 = AXIS2_PLACEMENT_3D ( 'NONE', #234, #235, #218 ) ;
#141 = DIRECTION ( 'NONE',  ( -0.000000000000000000, -0.000000000000000000, -1.000000000000000000 ) ) ;
#142 = ORIENTED_EDGE ( 'NONE', *, *, #32, .F. ) ;
#143 = VERTEX_POINT ( 'NONE', #194 ) ;
#144 = EDGE_CURVE ( 'NONE', #249, #191, #149, .T. ) ;
#145 = DATE_AND_TIME ( #219, #103 ) ;
#146 = EDGE_LOOP ( 'NONE', ( #184, #181 ) ) ;
#147 = CC_DESIGN_APPROVAL ( #27, ( #84 ) ) ;
#148 = CARTESIAN_POINT ( 'NONE',  ( 0.000000000000000000, 0.000000000000000000, 0.000000000000000000 ) ) ;
#149 = CIRCLE ( 'NONE', #96, 7.000000000000000000 ) ;
#150 = AXIS2_PLACEMENT_3D ( 'NONE', #225, #43, #155 ) ;
#151 = APPROVAL_ROLE ( '' ) ;
#152 = EDGE_CURVE ( 'NONE', #143, #26, #228, .T. ) ;
#153 = CARTESIAN_POINT ( 'NONE',  ( 0.000000000000000000, 0.000000000000000000, 315.0000000000000000 ) ) ;
#154 = MECHANICAL_CONTEXT ( 'NONE', #169, 'mechanical' ) ;
#155 = DIRECTION ( 'NONE',  ( 1.000000000000000000, 0.000000000000000000, 0.000000000000000000 ) ) ;
#156 = FACE_OUTER_BOUND ( 'NONE', #245, .T. ) ;
#157 = DIRECTION ( 'NONE',  ( 0.000000000000000000, 0.000000000000000000, 1.000000000000000000 ) ) ;
#158 = VERTEX_POINT ( 'NONE', #117 ) ;
#159 = CARTESIAN_POINT ( 'NONE',  ( 0.000000000000000000, 0.000000000000000000, 315.0000000000000000 ) ) ;
#160 = VECTOR ( 'NONE', #10, 1000.000000000000000 ) ;
#161 = DIRECTION ( 'NONE',  ( -0.000000000000000000, -0.000000000000000000, -1.000000000000000000 ) ) ;
#162 = ADVANCED_FACE ( 'NONE', ( #97, #182 ), #172, .T. ) ;
#163 = CARTESIAN_POINT ( 'NONE',  ( 0.000000000000000000, 0.000000000000000000, 6.500000000000000000 ) ) ;
#164 = DESIGN_CONTEXT ( 'detailed design', #130, 'design' ) ;
#165 = ORIENTED_EDGE ( 'NONE', *, *, #135, .F. ) ;
#166 = CARTESIAN_POINT ( 'NONE',  ( 7.000000000000000000, 8.572527594031471218E-16, 0.000000000000000000 ) ) ;
#167 = CC_DESIGN_SECURITY_CLASSIFICATION ( #84, ( #68 ) ) ;
#168 = CALENDAR_DATE ( 2023, 13, 2 ) ;
#169 = APPLICATION_CONTEXT ( 'configuration controlled 3d designs of mechanical parts and assemblies' ) ;
#170 = APPROVAL_PERSON_ORGANIZATION ( #4, #27, #171 ) ;
#171 = APPROVAL_ROLE ( '' ) ;
#172 = PLANE ( 'NONE',  #17 ) ;
#173 = VECTOR ( 'NONE', #141, 1000.000000000000000 ) ;
#174 = CC_DESIGN_PERSON_AND_ORGANIZATION_ASSIGNMENT ( #115, #66, ( #84 ) ) ;
#175 = LOCAL_TIME ( 14, 45, 41.00000000000000000, #200 ) ;
#176 = CYLINDRICAL_SURFACE ( 'NONE', #118, 4.500000000000000888 ) ;
#177 = SHAPE_DEFINITION_REPRESENTATION ( #61, #232 ) ;
#178 = DIRECTION ( 'NONE',  ( -1.000000000000000000, 0.000000000000000000, 0.000000000000000000 ) ) ;
#179 = CARTESIAN_POINT ( 'NONE',  ( 0.000000000000000000, 0.000000000000000000, 0.000000000000000000 ) ) ;
#180 = PERSON_AND_ORGANIZATION ( #138, #255 ) ;
#181 = ORIENTED_EDGE ( 'NONE', *, *, #152, .F. ) ;
#182 = FACE_OUTER_BOUND ( 'NONE', #186, .T. ) ;
#183 = CARTESIAN_POINT ( 'NONE',  ( 0.000000000000000000, 0.000000000000000000, 315.0000000000000000 ) ) ;
#184 = ORIENTED_EDGE ( 'NONE', *, *, #55, .F. ) ;
#185 = ADVANCED_FACE ( 'NONE', ( #1 ), #22, .T. ) ;
#186 = EDGE_LOOP ( 'NONE', ( #85, #254 ) ) ;
#187 = DIRECTION ( 'NONE',  ( 1.000000000000000000, 0.000000000000000000, 0.000000000000000000 ) ) ;
#188 = CARTESIAN_POINT ( 'NONE',  ( -4.500000000000000888, 0.000000000000000000, 6.500000000000000000 ) ) ;
#189 = ORIENTED_EDGE ( 'NONE', *, *, #122, .F. ) ;
#190 = CC_DESIGN_PERSON_AND_ORGANIZATION_ASSIGNMENT ( #180, #119, ( #23 ) ) ;
#191 = VERTEX_POINT ( 'NONE', #47 ) ;
#192 = APPROVAL_DATE_TIME ( #107, #20 ) ;
#193 = VERTEX_POINT ( 'NONE', #116 ) ;
#194 = CARTESIAN_POINT ( 'NONE',  ( 4.500000000000000888, 5.510910596163088569E-16, 6.500000000000000000 ) ) ;
#195 = MANIFOLD_SOLID_BREP ( 'Pøidat vysunutím3', #223 ) ;
#196 = DIRECTION ( 'NONE',  ( 1.000000000000000000, 0.000000000000000000, -0.000000000000000000 ) ) ;
#197 = APPLICATION_PROTOCOL_DEFINITION ( 'international standard', 'config_control_design', 1994, #130 ) ;
#198 = CALENDAR_DATE ( 2023, 13, 2 ) ;
#199 = EDGE_CURVE ( 'NONE', #193, #26, #242, .T. ) ;
#200 = COORDINATED_UNIVERSAL_TIME_OFFSET ( 1, 0, .AHEAD. ) ;
#201 = CIRCLE ( 'NONE', #114, 4.500000000000000888 ) ;
#202 = CARTESIAN_POINT ( 'NONE',  ( -4.500000000000000888, 0.000000000000000000, 315.0000000000000000 ) ) ;
#203 = VECTOR ( 'NONE', #24, 1000.000000000000000 ) ;
#204 = DIRECTION ( 'NONE',  ( 1.000000000000000000, 0.000000000000000000, 0.000000000000000000 ) ) ;
#205 = ORIENTED_EDGE ( 'NONE', *, *, #55, .T. ) ;
#206 = PLANE ( 'NONE',  #60 ) ;
#207 = EDGE_LOOP ( 'NONE', ( #189, #124, #49, #54 ) ) ;
#208 = LINE ( 'NONE', #231, #160 ) ;
#209 = EDGE_CURVE ( 'NONE', #226, #16, #46, .T. ) ;
#210 = EDGE_LOOP ( 'NONE', ( #102, #211 ) ) ;
#211 = ORIENTED_EDGE ( 'NONE', *, *, #244, .F. ) ;
#212 = DIRECTION ( 'NONE',  ( -0.000000000000000000, -0.000000000000000000, -1.000000000000000000 ) ) ;
#213 = PERSON_AND_ORGANIZATION_ROLE ( 'creator' ) ;
#214 = ORIENTED_EDGE ( 'NONE', *, *, #199, .F. ) ;
#215 =( NAMED_UNIT ( * ) SI_UNIT ( $, .STERADIAN. ) SOLID_ANGLE_UNIT ( ) );
#216 = ORIENTED_EDGE ( 'NONE', *, *, #3, .F. ) ;
#217 = AXIS2_PLACEMENT_3D ( 'NONE', #126, #38, #105 ) ;
#218 = DIRECTION ( 'NONE',  ( 1.000000000000000000, 0.000000000000000000, 0.000000000000000000 ) ) ;
#219 = CALENDAR_DATE ( 2023, 13, 2 ) ;
#220 = PRODUCT_RELATED_PRODUCT_CATEGORY ( 'detail', '', ( #23 ) ) ;
#221 = APPROVAL_STATUS ( 'not_yet_approved' ) ;
#222 = ADVANCED_FACE ( 'NONE', ( #156 ), #176, .T. ) ;
#223 = CLOSED_SHELL ( 'NONE', ( #57, #41, #185, #162, #37, #222, #72 ) ) ;
#224 = APPROVAL_STATUS ( 'not_yet_approved' ) ;
#225 = CARTESIAN_POINT ( 'NONE',  ( 0.000000000000000000, 0.000000000000000000, 0.000000000000000000 ) ) ;
#226 = VERTEX_POINT ( 'NONE', #25 ) ;
#227 = APPROVAL_PERSON_ORGANIZATION ( #78, #20, #133 ) ;
#228 = CIRCLE ( 'NONE', #104, 4.500000000000000888 ) ;
#229 = ORIENTED_EDGE ( 'NONE', *, *, #152, .T. ) ;
#230 = EDGE_LOOP ( 'NONE', ( #216, #33, #251, #45 ) ) ;
#231 = CARTESIAN_POINT ( 'NONE',  ( 7.000000000000000000, 8.572527594031471218E-16, 6.500000000000000000 ) ) ;
#232 = ADVANCED_BREP_SHAPE_REPRESENTATION ( '1ee3', ( #195, #29 ), #123 ) ;
#233 = EDGE_LOOP ( 'NONE', ( #101, #52 ) ) ;
#234 = CARTESIAN_POINT ( 'NONE',  ( 0.000000000000000000, 0.000000000000000000, 6.500000000000000000 ) ) ;
#235 = DIRECTION ( 'NONE',  ( 0.000000000000000000, 0.000000000000000000, 1.000000000000000000 ) ) ;
#236 = COORDINATED_UNIVERSAL_TIME_OFFSET ( 1, 0, .AHEAD. ) ;
#237 = DIRECTION ( 'NONE',  ( 0.000000000000000000, 0.000000000000000000, 1.000000000000000000 ) ) ;
#238 = CIRCLE ( 'NONE', #150, 7.000000000000000000 ) ;
#239 =( LENGTH_UNIT ( ) NAMED_UNIT ( * ) SI_UNIT ( .MILLI., .METRE. ) );
#240 = DATE_AND_TIME ( #131, #79 ) ;
#241 = DATE_TIME_ROLE ( 'creation_date' ) ;
#242 = LINE ( 'NONE', #202, #203 ) ;
#243 = ORIENTED_EDGE ( 'NONE', *, *, #7, .F. ) ;
#244 = EDGE_CURVE ( 'NONE', #16, #226, #238, .T. ) ;
#245 = EDGE_LOOP ( 'NONE', ( #142, #165, #12, #205 ) ) ;
#246 = DIRECTION ( 'NONE',  ( 0.000000000000000000, 0.000000000000000000, 1.000000000000000000 ) ) ;
#247 = DIRECTION ( 'NONE',  ( 0.000000000000000000, 0.000000000000000000, 1.000000000000000000 ) ) ;
#248 = AXIS2_PLACEMENT_3D ( 'NONE', #183, #139, #86 ) ;
#249 = VERTEX_POINT ( 'NONE', #5 ) ;
#250 = FACE_OUTER_BOUND ( 'NONE', #233, .T. ) ;
#251 = ORIENTED_EDGE ( 'NONE', *, *, #244, .T. ) ;
#252 = CC_DESIGN_APPROVAL ( #20, ( #68 ) ) ;
#253 = DIRECTION ( 'NONE',  ( 1.000000000000000000, 0.000000000000000000, -0.000000000000000000 ) ) ;
#254 = ORIENTED_EDGE ( 'NONE', *, *, #3, .T. ) ;
#255 = ORGANIZATION ( 'NEURÈENÝ', 'NEURÈENÝ', '' ) ;
ENDSEC;
END-ISO-10303-21;
