ISO-10303-21;
HEADER;
FILE_DESCRIPTION (( 'STEP AP203' ),
    '1' );
FILE_NAME ('5909.STEP',
    '2023-02-13T14:46:04',
    ( '' ),
    ( '' ),
    'SwSTEP 2.0',
    'SolidWorks 2019',
    '' );
FILE_SCHEMA (( 'CONFIG_CONTROL_DESIGN' ));
ENDSEC;

DATA;
#1 = CARTESIAN_POINT ( 'NONE',  ( 6.000000000000000888, 7.347880794884120722E-16, 5.000000000000000000 ) ) ;
#2 = ORIENTED_EDGE ( 'NONE', *, *, #19, .T. ) ;
#3 = AXIS2_PLACEMENT_3D ( 'NONE', #245, #102, #116 ) ;
#4 = PRODUCT_RELATED_PRODUCT_CATEGORY ( 'detail', '', ( #100 ) ) ;
#5 = DIRECTION ( 'NONE',  ( 1.000000000000000000, 0.000000000000000000, -0.000000000000000000 ) ) ;
#6 = ORIENTED_EDGE ( 'NONE', *, *, #112, .F. ) ;
#7 = ORIENTED_EDGE ( 'NONE', *, *, #19, .F. ) ;
#8 = EDGE_CURVE ( 'NONE', #62, #118, #25, .T. ) ;
#9 = VECTOR ( 'NONE', #240, 1000.000000000000000 ) ;
#10 = DATE_AND_TIME ( #198, #136 ) ;
#11 = CC_DESIGN_APPROVAL ( #184, ( #82 ) ) ;
#12 = DIRECTION ( 'NONE',  ( 0.000000000000000000, 0.000000000000000000, 1.000000000000000000 ) ) ;
#13 = CARTESIAN_POINT ( 'NONE',  ( 0.000000000000000000, 0.000000000000000000, 500.0000000000000000 ) ) ;
#14 = DIRECTION ( 'NONE',  ( -1.000000000000000000, 0.000000000000000000, 0.000000000000000000 ) ) ;
#15 = CYLINDRICAL_SURFACE ( 'NONE', #150, 6.000000000000000888 ) ;
#16 = PRODUCT_DEFINITION_FORMATION_WITH_SPECIFIED_SOURCE ( 'LIBOVOLNÝ', '', #100, .NOT_KNOWN. ) ;
#17 = APPLICATION_CONTEXT ( 'configuration controlled 3d designs of mechanical parts and assemblies' ) ;
#18 = DIRECTION ( 'NONE',  ( 1.000000000000000000, 0.000000000000000000, 0.000000000000000000 ) ) ;
#19 = EDGE_CURVE ( 'NONE', #206, #103, #166, .T. ) ;
#20 = ORIENTED_EDGE ( 'NONE', *, *, #127, .T. ) ;
#21 = ORIENTED_EDGE ( 'NONE', *, *, #199, .T. ) ;
#22 = AXIS2_PLACEMENT_3D ( 'NONE', #208, #104, #182 ) ;
#23 = CALENDAR_DATE ( 2023, 13, 2 ) ;
#24 = CC_DESIGN_DATE_AND_TIME_ASSIGNMENT ( #93, #221, ( #82 ) ) ;
#25 = CIRCLE ( 'NONE', #90, 3.750000000000000000 ) ;
#26 = ORIENTED_EDGE ( 'NONE', *, *, #230, .F. ) ;
#27 =( NAMED_UNIT ( * ) SI_UNIT ( $, .STERADIAN. ) SOLID_ANGLE_UNIT ( ) );
#28 = AXIS2_PLACEMENT_3D ( 'NONE', #121, #212, #30 ) ;
#29 = CC_DESIGN_PERSON_AND_ORGANIZATION_ASSIGNMENT ( #201, #79, ( #72 ) ) ;
#30 = DIRECTION ( 'NONE',  ( 1.000000000000000000, 0.000000000000000000, 0.000000000000000000 ) ) ;
#31 = ADVANCED_FACE ( 'NONE', ( #175 ), #74, .T. ) ;
#32 = COORDINATED_UNIVERSAL_TIME_OFFSET ( 1, 0, .AHEAD. ) ;
#33 = CARTESIAN_POINT ( 'NONE',  ( 0.000000000000000000, 0.000000000000000000, 500.0000000000000000 ) ) ;
#34 = CARTESIAN_POINT ( 'NONE',  ( 0.000000000000000000, 0.000000000000000000, 500.0000000000000000 ) ) ;
#35 = COORDINATED_UNIVERSAL_TIME_OFFSET ( 1, 0, .AHEAD. ) ;
#36 = COORDINATED_UNIVERSAL_TIME_OFFSET ( 1, 0, .AHEAD. ) ;
#37 = ORIENTED_EDGE ( 'NONE', *, *, #234, .F. ) ;
#38 =( GEOMETRIC_REPRESENTATION_CONTEXT ( 3 ) GLOBAL_UNCERTAINTY_ASSIGNED_CONTEXT ( ( #161 ) ) GLOBAL_UNIT_ASSIGNED_CONTEXT ( ( #43, #209, #27 ) ) REPRESENTATION_CONTEXT ( 'NONE', 'WORKASPACE' ) );
#39 = DATE_AND_TIME ( #23, #124 ) ;
#40 = APPROVAL ( #226, 'NEURÈENÝ' ) ;
#41 = COORDINATED_UNIVERSAL_TIME_OFFSET ( 1, 0, .AHEAD. ) ;
#42 = DIRECTION ( 'NONE',  ( 1.000000000000000000, 0.000000000000000000, 0.000000000000000000 ) ) ;
#43 =( LENGTH_UNIT ( ) NAMED_UNIT ( * ) SI_UNIT ( .MILLI., .METRE. ) );
#44 = SHAPE_DEFINITION_REPRESENTATION ( #64, #252 ) ;
#45 = CIRCLE ( 'NONE', #196, 3.750000000000000000 ) ;
#46 = DIRECTION ( 'NONE',  ( -0.000000000000000000, -0.000000000000000000, -1.000000000000000000 ) ) ;
#47 = CIRCLE ( 'NONE', #183, 6.000000000000000888 ) ;
#48 = DIRECTION ( 'NONE',  ( 1.000000000000000000, 0.000000000000000000, -0.000000000000000000 ) ) ;
#49 = DIRECTION ( 'NONE',  ( -0.000000000000000000, -0.000000000000000000, -1.000000000000000000 ) ) ;
#50 = ADVANCED_FACE ( 'NONE', ( #203, #181 ), #119, .T. ) ;
#51 = AXIS2_PLACEMENT_3D ( 'NONE', #138, #12, #89 ) ;
#52 = DIRECTION ( 'NONE',  ( -1.000000000000000000, 0.000000000000000000, 0.000000000000000000 ) ) ;
#53 = CARTESIAN_POINT ( 'NONE',  ( 3.750000000000000000, 4.592425496802573972E-16, 5.000000000000000000 ) ) ;
#54 = MECHANICAL_CONTEXT ( 'NONE', #17, 'mechanical' ) ;
#55 = LOCAL_TIME ( 15, 46, 4.000000000000000000, #35 ) ;
#56 = APPROVAL_STATUS ( 'not_yet_approved' ) ;
#57 = EDGE_LOOP ( 'NONE', ( #224, #6 ) ) ;
#58 = EDGE_LOOP ( 'NONE', ( #7, #20, #115, #227 ) ) ;
#59 = CIRCLE ( 'NONE', #3, 3.750000000000000000 ) ;
#60 = LOCAL_TIME ( 15, 46, 4.000000000000000000, #32 ) ;
#61 = DESIGN_CONTEXT ( 'detailed design', #151, 'design' ) ;
#62 = VERTEX_POINT ( 'NONE', #84 ) ;
#63 = ADVANCED_FACE ( 'NONE', ( #213 ), #106, .T. ) ;
#64 = PRODUCT_DEFINITION_SHAPE ( 'NONE', 'NONE',  #72 ) ;
#65 = ORIENTED_EDGE ( 'NONE', *, *, #101, .F. ) ;
#66 = EDGE_CURVE ( 'NONE', #103, #220, #246, .T. ) ;
#67 = DIRECTION ( 'NONE',  ( 0.000000000000000000, 0.000000000000000000, 1.000000000000000000 ) ) ;
#68 = DIRECTION ( 'NONE',  ( -1.000000000000000000, 0.000000000000000000, 0.000000000000000000 ) ) ;
#69 = ADVANCED_FACE ( 'NONE', ( #87 ), #142, .T. ) ;
#70 = DIRECTION ( 'NONE',  ( 1.000000000000000000, 0.000000000000000000, 0.000000000000000000 ) ) ;
#71 = APPROVAL_PERSON_ORGANIZATION ( #130, #40, #156 ) ;
#72 = PRODUCT_DEFINITION ( 'NEZNÁMÝ', '', #16, #61 ) ;
#73 = CC_DESIGN_APPROVAL ( #244, ( #16 ) ) ;
#74 = CYLINDRICAL_SURFACE ( 'NONE', #231, 6.000000000000000888 ) ;
#75 = PERSON_AND_ORGANIZATION ( #249, #179 ) ;
#76 = PERSON_AND_ORGANIZATION ( #249, #179 ) ;
#77 = ORIENTED_EDGE ( 'NONE', *, *, #8, .F. ) ;
#78 = MANIFOLD_SOLID_BREP ( 'Pøidat vysunutím3', #109 ) ;
#79 = PERSON_AND_ORGANIZATION_ROLE ( 'creator' ) ;
#80 = AXIS2_PLACEMENT_3D ( 'NONE', #250, #148, #70 ) ;
#81 = ORIENTED_EDGE ( 'NONE', *, *, #230, .T. ) ;
#82 = SECURITY_CLASSIFICATION ( '', '', #218 ) ;
#83 = LINE ( 'NONE', #229, #9 ) ;
#84 = CARTESIAN_POINT ( 'NONE',  ( 3.750000000000000000, 4.592425496802573972E-16, 500.0000000000000000 ) ) ;
#85 = AXIS2_PLACEMENT_3D ( 'NONE', #113, #195, #95 ) ;
#86 = CC_DESIGN_PERSON_AND_ORGANIZATION_ASSIGNMENT ( #217, #133, ( #100 ) ) ;
#87 = FACE_OUTER_BOUND ( 'NONE', #123, .T. ) ;
#88 = DIRECTION ( 'NONE',  ( -1.000000000000000000, 0.000000000000000000, 0.000000000000000000 ) ) ;
#89 = DIRECTION ( 'NONE',  ( 1.000000000000000000, 0.000000000000000000, 0.000000000000000000 ) ) ;
#90 = AXIS2_PLACEMENT_3D ( 'NONE', #34, #173, #255 ) ;
#91 = DIRECTION ( 'NONE',  ( 1.000000000000000000, 0.000000000000000000, 0.000000000000000000 ) ) ;
#92 = CC_DESIGN_SECURITY_CLASSIFICATION ( #82, ( #16 ) ) ;
#93 = DATE_AND_TIME ( #111, #60 ) ;
#94 = DIRECTION ( 'NONE',  ( 0.000000000000000000, 0.000000000000000000, 1.000000000000000000 ) ) ;
#95 = DIRECTION ( 'NONE',  ( 1.000000000000000000, 0.000000000000000000, 0.000000000000000000 ) ) ;
#96 = EDGE_LOOP ( 'NONE', ( #77, #81, #241, #153 ) ) ;
#97 = ORIENTED_EDGE ( 'NONE', *, *, #234, .T. ) ;
#98 = ORIENTED_EDGE ( 'NONE', *, *, #8, .T. ) ;
#99 = CARTESIAN_POINT ( 'NONE',  ( -3.750000000000000000, 0.000000000000000000, 5.000000000000000000 ) ) ;
#100 = PRODUCT ( '5909', '5909', '', ( #54 ) ) ;
#101 = EDGE_CURVE ( 'NONE', #200, #171, #131, .T. ) ;
#102 = DIRECTION ( 'NONE',  ( 0.000000000000000000, 0.000000000000000000, 1.000000000000000000 ) ) ;
#103 = VERTEX_POINT ( 'NONE', #189 ) ;
#104 = DIRECTION ( 'NONE',  ( 0.000000000000000000, 0.000000000000000000, 1.000000000000000000 ) ) ;
#105 = APPLICATION_PROTOCOL_DEFINITION ( 'international standard', 'config_control_design', 1994, #17 ) ;
#106 = CYLINDRICAL_SURFACE ( 'NONE', #160, 3.750000000000000000 ) ;
#107 = CALENDAR_DATE ( 2023, 13, 2 ) ;
#108 = CC_DESIGN_PERSON_AND_ORGANIZATION_ASSIGNMENT ( #191, #237, ( #82 ) ) ;
#109 = CLOSED_SHELL ( 'NONE', ( #63, #122, #31, #50, #187, #69, #165 ) ) ;
#110 = PERSON_AND_ORGANIZATION_ROLE ( 'creator' ) ;
#111 = CALENDAR_DATE ( 2023, 13, 2 ) ;
#112 = EDGE_CURVE ( 'NONE', #235, #220, #164, .T. ) ;
#113 = CARTESIAN_POINT ( 'NONE',  ( 0.000000000000000000, 0.000000000000000000, 5.000000000000000000 ) ) ;
#114 = AXIS2_PLACEMENT_3D ( 'NONE', #193, #94, #5 ) ;
#115 = ORIENTED_EDGE ( 'NONE', *, *, #112, .T. ) ;
#116 = DIRECTION ( 'NONE',  ( 1.000000000000000000, 0.000000000000000000, 0.000000000000000000 ) ) ;
#117 = DIRECTION ( 'NONE',  ( -0.000000000000000000, -0.000000000000000000, -1.000000000000000000 ) ) ;
#118 = VERTEX_POINT ( 'NONE', #214 ) ;
#119 = PLANE ( 'NONE',  #22 ) ;
#120 = VECTOR ( 'NONE', #49, 1000.000000000000000 ) ;
#121 = CARTESIAN_POINT ( 'NONE',  ( 0.000000000000000000, 0.000000000000000000, 0.000000000000000000 ) ) ;
#122 = ADVANCED_FACE ( 'NONE', ( #185 ), #15, .T. ) ;
#123 = EDGE_LOOP ( 'NONE', ( #26, #37, #21, #254 ) ) ;
#124 = LOCAL_TIME ( 15, 46, 4.000000000000000000, #41 ) ;
#125 = DIRECTION ( 'NONE',  ( 0.000000000000000000, 0.000000000000000000, 1.000000000000000000 ) ) ;
#126 = EDGE_LOOP ( 'NONE', ( #239, #233, #162, #253 ) ) ;
#127 = EDGE_CURVE ( 'NONE', #206, #235, #232, .T. ) ;
#128 = PERSON_AND_ORGANIZATION ( #249, #179 ) ;
#129 = DIRECTION ( 'NONE',  ( -0.000000000000000000, -0.000000000000000000, -1.000000000000000000 ) ) ;
#130 = PERSON_AND_ORGANIZATION ( #249, #179 ) ;
#131 = CIRCLE ( 'NONE', #80, 3.750000000000000000 ) ;
#132 = EDGE_LOOP ( 'NONE', ( #135, #2 ) ) ;
#133 = PERSON_AND_ORGANIZATION_ROLE ( 'design_owner' ) ;
#134 = EDGE_LOOP ( 'NONE', ( #65, #202 ) ) ;
#135 = ORIENTED_EDGE ( 'NONE', *, *, #228, .T. ) ;
#136 = LOCAL_TIME ( 15, 46, 4.000000000000000000, #36 ) ;
#137 = LINE ( 'NONE', #180, #146 ) ;
#138 = CARTESIAN_POINT ( 'NONE',  ( 0.000000000000000000, 0.000000000000000000, 0.000000000000000000 ) ) ;
#139 = CARTESIAN_POINT ( 'NONE',  ( -6.000000000000000888, 0.000000000000000000, 5.000000000000000000 ) ) ;
#140 = CARTESIAN_POINT ( 'NONE',  ( 6.000000000000000888, 7.347880794884120722E-16, 5.000000000000000000 ) ) ;
#141 = APPROVAL_DATE_TIME ( #10, #184 ) ;
#142 = CYLINDRICAL_SURFACE ( 'NONE', #174, 3.750000000000000000 ) ;
#143 = AXIS2_PLACEMENT_3D ( 'NONE', #13, #67, #48 ) ;
#144 = CARTESIAN_POINT ( 'NONE',  ( 0.000000000000000000, 0.000000000000000000, 0.000000000000000000 ) ) ;
#145 = DIRECTION ( 'NONE',  ( -0.000000000000000000, -0.000000000000000000, -1.000000000000000000 ) ) ;
#146 = VECTOR ( 'NONE', #117, 1000.000000000000000 ) ;
#147 = COORDINATED_UNIVERSAL_TIME_OFFSET ( 1, 0, .AHEAD. ) ;
#148 = DIRECTION ( 'NONE',  ( 0.000000000000000000, 0.000000000000000000, 1.000000000000000000 ) ) ;
#149 = FACE_OUTER_BOUND ( 'NONE', #57, .T. ) ;
#150 = AXIS2_PLACEMENT_3D ( 'NONE', #168, #248, #68 ) ;
#151 = APPLICATION_CONTEXT ( 'configuration controlled 3d designs of mechanical parts and assemblies' ) ;
#152 = PERSON_AND_ORGANIZATION_ROLE ( 'design_supplier' ) ;
#153 = ORIENTED_EDGE ( 'NONE', *, *, #199, .F. ) ;
#154 = APPROVAL_DATE_TIME ( #236, #244 ) ;
#155 = CARTESIAN_POINT ( 'NONE',  ( 0.000000000000000000, 0.000000000000000000, 5.000000000000000000 ) ) ;
#156 = APPROVAL_ROLE ( '' ) ;
#157 = EDGE_LOOP ( 'NONE', ( #97, #98 ) ) ;
#158 = CC_DESIGN_PERSON_AND_ORGANIZATION_ASSIGNMENT ( #76, #152, ( #16 ) ) ;
#159 = CALENDAR_DATE ( 2023, 13, 2 ) ;
#160 = AXIS2_PLACEMENT_3D ( 'NONE', #188, #145, #88 ) ;
#161 = UNCERTAINTY_MEASURE_WITH_UNIT (LENGTH_MEASURE( 1.000000000000000082E-05 ), #43, 'distance_accuracy_value', 'NONE');
#162 = ORIENTED_EDGE ( 'NONE', *, *, #66, .T. ) ;
#163 = CARTESIAN_POINT ( 'NONE',  ( -6.000000000000000888, 0.000000000000000000, 0.000000000000000000 ) ) ;
#164 = CIRCLE ( 'NONE', #51, 6.000000000000000888 ) ;
#165 = ADVANCED_FACE ( 'NONE', ( #186 ), #247, .T. ) ;
#166 = CIRCLE ( 'NONE', #85, 6.000000000000000888 ) ;
#167 = EDGE_CURVE ( 'NONE', #220, #235, #47, .T. ) ;
#168 = CARTESIAN_POINT ( 'NONE',  ( 0.000000000000000000, 0.000000000000000000, 5.000000000000000000 ) ) ;
#169 = CC_DESIGN_APPROVAL ( #40, ( #72 ) ) ;
#170 = APPROVAL_ROLE ( '' ) ;
#171 = VERTEX_POINT ( 'NONE', #53 ) ;
#172 = CC_DESIGN_PERSON_AND_ORGANIZATION_ASSIGNMENT ( #128, #110, ( #16 ) ) ;
#173 = DIRECTION ( 'NONE',  ( 0.000000000000000000, 0.000000000000000000, 1.000000000000000000 ) ) ;
#174 = AXIS2_PLACEMENT_3D ( 'NONE', #33, #46, #14 ) ;
#175 = FACE_OUTER_BOUND ( 'NONE', #126, .T. ) ;
#176 = DATE_TIME_ROLE ( 'creation_date' ) ;
#177 = CARTESIAN_POINT ( 'NONE',  ( 0.000000000000000000, 0.000000000000000000, 5.000000000000000000 ) ) ;
#178 = EDGE_CURVE ( 'NONE', #171, #200, #45, .T. ) ;
#179 = ORGANIZATION ( 'NEURÈENÝ', 'NEURÈENÝ', '' ) ;
#180 = CARTESIAN_POINT ( 'NONE',  ( 3.750000000000000000, 4.592425496802573972E-16, 500.0000000000000000 ) ) ;
#181 = FACE_OUTER_BOUND ( 'NONE', #132, .T. ) ;
#182 = DIRECTION ( 'NONE',  ( 1.000000000000000000, 0.000000000000000000, -0.000000000000000000 ) ) ;
#183 = AXIS2_PLACEMENT_3D ( 'NONE', #144, #238, #91 ) ;
#184 = APPROVAL ( #56, 'NEURÈENÝ' ) ;
#185 = FACE_OUTER_BOUND ( 'NONE', #58, .T. ) ;
#186 = FACE_OUTER_BOUND ( 'NONE', #157, .T. ) ;
#187 = ADVANCED_FACE ( 'NONE', ( #149 ), #219, .F. ) ;
#188 = CARTESIAN_POINT ( 'NONE',  ( 0.000000000000000000, 0.000000000000000000, 500.0000000000000000 ) ) ;
#189 = CARTESIAN_POINT ( 'NONE',  ( -6.000000000000000888, 0.000000000000000000, 5.000000000000000000 ) ) ;
#190 = APPROVAL_PERSON_ORGANIZATION ( #75, #244, #170 ) ;
#191 = PERSON_AND_ORGANIZATION ( #249, #179 ) ;
#192 = CARTESIAN_POINT ( 'NONE',  ( 0.000000000000000000, 0.000000000000000000, 5.000000000000000000 ) ) ;
#193 = CARTESIAN_POINT ( 'NONE',  ( 0.000000000000000000, 0.000000000000000000, 0.000000000000000000 ) ) ;
#194 = PERSON_AND_ORGANIZATION ( #249, #179 ) ;
#195 = DIRECTION ( 'NONE',  ( 0.000000000000000000, 0.000000000000000000, 1.000000000000000000 ) ) ;
#196 = AXIS2_PLACEMENT_3D ( 'NONE', #192, #125, #18 ) ;
#197 = APPLICATION_PROTOCOL_DEFINITION ( 'international standard', 'config_control_design', 1994, #151 ) ;
#198 = CALENDAR_DATE ( 2023, 13, 2 ) ;
#199 = EDGE_CURVE ( 'NONE', #118, #200, #83, .T. ) ;
#200 = VERTEX_POINT ( 'NONE', #99 ) ;
#201 = PERSON_AND_ORGANIZATION ( #249, #179 ) ;
#202 = ORIENTED_EDGE ( 'NONE', *, *, #178, .F. ) ;
#203 = FACE_BOUND ( 'NONE', #134, .T. ) ;
#204 = LOCAL_TIME ( 15, 46, 4.000000000000000000, #147 ) ;
#205 = DIRECTION ( 'NONE',  ( 0.000000000000000000, 0.000000000000000000, 1.000000000000000000 ) ) ;
#206 = VERTEX_POINT ( 'NONE', #1 ) ;
#207 = APPROVAL_PERSON_ORGANIZATION ( #194, #184, #223 ) ;
#208 = CARTESIAN_POINT ( 'NONE',  ( 0.000000000000000000, 0.000000000000000000, 5.000000000000000000 ) ) ;
#209 =( NAMED_UNIT ( * ) PLANE_ANGLE_UNIT ( ) SI_UNIT ( $, .RADIAN. ) );
#210 = DIRECTION ( 'NONE',  ( -0.000000000000000000, -0.000000000000000000, -1.000000000000000000 ) ) ;
#211 = CC_DESIGN_DATE_AND_TIME_ASSIGNMENT ( #243, #176, ( #72 ) ) ;
#212 = DIRECTION ( 'NONE',  ( 0.000000000000000000, 0.000000000000000000, 1.000000000000000000 ) ) ;
#213 = FACE_OUTER_BOUND ( 'NONE', #96, .T. ) ;
#214 = CARTESIAN_POINT ( 'NONE',  ( -3.750000000000000000, 0.000000000000000000, 500.0000000000000000 ) ) ;
#215 = APPROVAL_STATUS ( 'not_yet_approved' ) ;
#216 = CIRCLE ( 'NONE', #242, 6.000000000000000888 ) ;
#217 = PERSON_AND_ORGANIZATION ( #249, #179 ) ;
#218 = SECURITY_CLASSIFICATION_LEVEL ( 'unclassified' ) ;
#219 = PLANE ( 'NONE',  #114 ) ;
#220 = VERTEX_POINT ( 'NONE', #163 ) ;
#221 = DATE_TIME_ROLE ( 'classification_date' ) ;
#222 = APPROVAL_DATE_TIME ( #39, #40 ) ;
#223 = APPROVAL_ROLE ( '' ) ;
#224 = ORIENTED_EDGE ( 'NONE', *, *, #167, .F. ) ;
#225 = CARTESIAN_POINT ( 'NONE',  ( 6.000000000000000888, 7.347880794884120722E-16, 0.000000000000000000 ) ) ;
#226 = APPROVAL_STATUS ( 'not_yet_approved' ) ;
#227 = ORIENTED_EDGE ( 'NONE', *, *, #66, .F. ) ;
#228 = EDGE_CURVE ( 'NONE', #103, #206, #216, .T. ) ;
#229 = CARTESIAN_POINT ( 'NONE',  ( -3.750000000000000000, 0.000000000000000000, 500.0000000000000000 ) ) ;
#230 = EDGE_CURVE ( 'NONE', #62, #171, #137, .T. ) ;
#231 = AXIS2_PLACEMENT_3D ( 'NONE', #155, #129, #52 ) ;
#232 = LINE ( 'NONE', #140, #120 ) ;
#233 = ORIENTED_EDGE ( 'NONE', *, *, #228, .F. ) ;
#234 = EDGE_CURVE ( 'NONE', #118, #62, #59, .T. ) ;
#235 = VERTEX_POINT ( 'NONE', #225 ) ;
#236 = DATE_AND_TIME ( #107, #204 ) ;
#237 = PERSON_AND_ORGANIZATION_ROLE ( 'classification_officer' ) ;
#238 = DIRECTION ( 'NONE',  ( 0.000000000000000000, 0.000000000000000000, 1.000000000000000000 ) ) ;
#239 = ORIENTED_EDGE ( 'NONE', *, *, #127, .F. ) ;
#240 = DIRECTION ( 'NONE',  ( -0.000000000000000000, -0.000000000000000000, -1.000000000000000000 ) ) ;
#241 = ORIENTED_EDGE ( 'NONE', *, *, #178, .T. ) ;
#242 = AXIS2_PLACEMENT_3D ( 'NONE', #177, #205, #42 ) ;
#243 = DATE_AND_TIME ( #159, #55 ) ;
#244 = APPROVAL ( #215, 'NEURÈENÝ' ) ;
#245 = CARTESIAN_POINT ( 'NONE',  ( 0.000000000000000000, 0.000000000000000000, 500.0000000000000000 ) ) ;
#246 = LINE ( 'NONE', #139, #251 ) ;
#247 = PLANE ( 'NONE',  #143 ) ;
#248 = DIRECTION ( 'NONE',  ( -0.000000000000000000, -0.000000000000000000, -1.000000000000000000 ) ) ;
#249 = PERSON ( 'NEURÈENÝ', 'NEURÈENÝ', 'NEURÈENÝ', ('NEURÈENÝ'), ('NEURÈENÝ'), ('NEURÈENÝ') ) ;
#250 = CARTESIAN_POINT ( 'NONE',  ( 0.000000000000000000, 0.000000000000000000, 5.000000000000000000 ) ) ;
#251 = VECTOR ( 'NONE', #210, 1000.000000000000000 ) ;
#252 = ADVANCED_BREP_SHAPE_REPRESENTATION ( '5909', ( #78, #28 ), #38 ) ;
#253 = ORIENTED_EDGE ( 'NONE', *, *, #167, .T. ) ;
#254 = ORIENTED_EDGE ( 'NONE', *, *, #101, .T. ) ;
#255 = DIRECTION ( 'NONE',  ( 1.000000000000000000, 0.000000000000000000, 0.000000000000000000 ) ) ;
ENDSEC;
END-ISO-10303-21;
