ISO-10303-21;
HEADER;
FILE_DESCRIPTION (( 'STEP AP203' ),
    '1' );
FILE_NAME ('f6ed.STEP',
    '2023-02-13T07:31:40',
    ( '' ),
    ( '' ),
    'SwSTEP 2.0',
    'SolidWorks 2019',
    '' );
FILE_SCHEMA (( 'CONFIG_CONTROL_DESIGN' ));
ENDSEC;

DATA;
#1 = LINE ( 'NONE', #130, #187 ) ;
#2 = EDGE_CURVE ( 'NONE', #193, #84, #206, .T. ) ;
#3 = CYLINDRICAL_SURFACE ( 'NONE', #196, 12.50000000000000000 ) ;
#4 = VECTOR ( 'NONE', #168, 1000.000000000000000 ) ;
#5 = ORIENTED_EDGE ( 'NONE', *, *, #83, .F. ) ;
#6 = EDGE_LOOP ( 'NONE', ( #66, #191, #28, #49 ) ) ;
#7 = CARTESIAN_POINT ( 'NONE',  ( 0.000000000000000000, 0.000000000000000000, 0.000000000000000000 ) ) ;
#8 = APPROVAL_PERSON_ORGANIZATION ( #249, #248, #67 ) ;
#9 = ORIENTED_EDGE ( 'NONE', *, *, #36, .T. ) ;
#10 = EDGE_CURVE ( 'NONE', #112, #27, #229, .T. ) ;
#11 = EDGE_LOOP ( 'NONE', ( #247, #235, #37, #113 ) ) ;
#12 = DIRECTION ( 'NONE',  ( 0.000000000000000000, 0.000000000000000000, 1.000000000000000000 ) ) ;
#13 = ORIENTED_EDGE ( 'NONE', *, *, #79, .F. ) ;
#14 = DIRECTION ( 'NONE',  ( 1.000000000000000000, 0.000000000000000000, 0.000000000000000000 ) ) ;
#15 = CARTESIAN_POINT ( 'NONE',  ( 0.000000000000000000, 0.000000000000000000, 10.00000000000000000 ) ) ;
#16 = PERSON_AND_ORGANIZATION ( #114, #38 ) ;
#17 = DIRECTION ( 'NONE',  ( 0.000000000000000000, 0.000000000000000000, 1.000000000000000000 ) ) ;
#18 = CALENDAR_DATE ( 2023, 13, 2 ) ;
#19 = PERSON_AND_ORGANIZATION_ROLE ( 'creator' ) ;
#20 = AXIS2_PLACEMENT_3D ( 'NONE', #232, #61, #165 ) ;
#21 = DIRECTION ( 'NONE',  ( 0.000000000000000000, 0.000000000000000000, 1.000000000000000000 ) ) ;
#22 = CARTESIAN_POINT ( 'NONE',  ( -12.50000000000000000, 0.000000000000000000, 500.0000000000000000 ) ) ;
#23 = DIRECTION ( 'NONE',  ( 1.000000000000000000, 0.000000000000000000, 0.000000000000000000 ) ) ;
#24 = CC_DESIGN_APPROVAL ( #248, ( #115 ) ) ;
#25 = DIRECTION ( 'NONE',  ( 1.000000000000000000, 0.000000000000000000, -0.000000000000000000 ) ) ;
#26 = ADVANCED_FACE ( 'NONE', ( #60 ), #212, .T. ) ;
#27 = VERTEX_POINT ( 'NONE', #39 ) ;
#28 = ORIENTED_EDGE ( 'NONE', *, *, #127, .T. ) ;
#29 = CARTESIAN_POINT ( 'NONE',  ( 0.000000000000000000, 0.000000000000000000, 0.000000000000000000 ) ) ;
#30 =( NAMED_UNIT ( * ) SI_UNIT ( $, .STERADIAN. ) SOLID_ANGLE_UNIT ( ) );
#31 = PERSON_AND_ORGANIZATION ( #114, #38 ) ;
#32 = CIRCLE ( 'NONE', #210, 16.00000000000000000 ) ;
#33 = APPROVAL_DATE_TIME ( #35, #57 ) ;
#34 = AXIS2_PLACEMENT_3D ( 'NONE', #129, #82, #23 ) ;
#35 = DATE_AND_TIME ( #118, #94 ) ;
#36 = EDGE_CURVE ( 'NONE', #237, #193, #56, .T. ) ;
#37 = ORIENTED_EDGE ( 'NONE', *, *, #205, .T. ) ;
#38 = ORGANIZATION ( 'NEURÈENÝ', 'NEURÈENÝ', '' ) ;
#39 = CARTESIAN_POINT ( 'NONE',  ( 16.00000000000000000, 1.959434878635765131E-15, 0.000000000000000000 ) ) ;
#40 = DIRECTION ( 'NONE',  ( 1.000000000000000000, 0.000000000000000000, 0.000000000000000000 ) ) ;
#41 = ADVANCED_FACE ( 'NONE', ( #184, #153 ), #107, .T. ) ;
#42 = CARTESIAN_POINT ( 'NONE',  ( 12.50000000000000000, 1.530808498934191521E-15, 10.00000000000000000 ) ) ;
#43 = LOCAL_TIME ( 8, 31, 40.00000000000000000, #158 ) ;
#44 = AXIS2_PLACEMENT_3D ( 'NONE', #80, #216, #25 ) ;
#45 = CYLINDRICAL_SURFACE ( 'NONE', #102, 16.00000000000000000 ) ;
#46 = PLANE ( 'NONE',  #221 ) ;
#47 = EDGE_LOOP ( 'NONE', ( #13, #172, #9, #134 ) ) ;
#48 = DIRECTION ( 'NONE',  ( -0.000000000000000000, -0.000000000000000000, -1.000000000000000000 ) ) ;
#49 = ORIENTED_EDGE ( 'NONE', *, *, #59, .T. ) ;
#50 = CALENDAR_DATE ( 2023, 13, 2 ) ;
#51 = CARTESIAN_POINT ( 'NONE',  ( 0.000000000000000000, 0.000000000000000000, 10.00000000000000000 ) ) ;
#52 = COORDINATED_UNIVERSAL_TIME_OFFSET ( 1, 0, .AHEAD. ) ;
#53 = APPROVAL_ROLE ( '' ) ;
#54 = ADVANCED_FACE ( 'NONE', ( #151 ), #3, .T. ) ;
#55 = PERSON_AND_ORGANIZATION ( #114, #38 ) ;
#56 = LINE ( 'NONE', #22, #4 ) ;
#57 = APPROVAL ( #116, 'NEURÈENÝ' ) ;
#58 = DIRECTION ( 'NONE',  ( -0.000000000000000000, -0.000000000000000000, -1.000000000000000000 ) ) ;
#59 = EDGE_CURVE ( 'NONE', #243, #27, #230, .T. ) ;
#60 = FACE_OUTER_BOUND ( 'NONE', #156, .T. ) ;
#61 = DIRECTION ( 'NONE',  ( 0.000000000000000000, 0.000000000000000000, 1.000000000000000000 ) ) ;
#62 = ORIENTED_EDGE ( 'NONE', *, *, #164, .T. ) ;
#63 = EDGE_LOOP ( 'NONE', ( #198, #62 ) ) ;
#64 = PRODUCT_DEFINITION ( 'NEZNÁMÝ', '', #115, #233 ) ;
#65 = AXIS2_PLACEMENT_3D ( 'NONE', #211, #21, #183 ) ;
#66 = ORIENTED_EDGE ( 'NONE', *, *, #10, .F. ) ;
#67 = APPROVAL_ROLE ( '' ) ;
#68 = DATE_AND_TIME ( #98, #215 ) ;
#69 = LOCAL_TIME ( 8, 31, 40.00000000000000000, #73 ) ;
#70 = DATE_TIME_ROLE ( 'classification_date' ) ;
#71 = CARTESIAN_POINT ( 'NONE',  ( -16.00000000000000000, 0.000000000000000000, 0.000000000000000000 ) ) ;
#72 = EDGE_CURVE ( 'NONE', #237, #236, #154, .T. ) ;
#73 = COORDINATED_UNIVERSAL_TIME_OFFSET ( 1, 0, .AHEAD. ) ;
#74 = DIRECTION ( 'NONE',  ( 1.000000000000000000, 0.000000000000000000, 0.000000000000000000 ) ) ;
#75 = FACE_OUTER_BOUND ( 'NONE', #47, .T. ) ;
#76 =( NAMED_UNIT ( * ) PLANE_ANGLE_UNIT ( ) SI_UNIT ( $, .RADIAN. ) );
#77 = FACE_OUTER_BOUND ( 'NONE', #169, .T. ) ;
#78 = CARTESIAN_POINT ( 'NONE',  ( 0.000000000000000000, 0.000000000000000000, 500.0000000000000000 ) ) ;
#79 = EDGE_CURVE ( 'NONE', #236, #84, #1, .T. ) ;
#80 = CARTESIAN_POINT ( 'NONE',  ( 0.000000000000000000, 0.000000000000000000, 0.000000000000000000 ) ) ;
#81 = DIRECTION ( 'NONE',  ( -1.000000000000000000, 0.000000000000000000, 0.000000000000000000 ) ) ;
#82 = DIRECTION ( 'NONE',  ( 0.000000000000000000, 0.000000000000000000, 1.000000000000000000 ) ) ;
#83 = EDGE_CURVE ( 'NONE', #27, #243, #223, .T. ) ;
#84 = VERTEX_POINT ( 'NONE', #42 ) ;
#85 = AXIS2_PLACEMENT_3D ( 'NONE', #91, #177, #74 ) ;
#86 = CARTESIAN_POINT ( 'NONE',  ( -16.00000000000000000, 0.000000000000000000, 10.00000000000000000 ) ) ;
#87 = ORIENTED_EDGE ( 'NONE', *, *, #127, .F. ) ;
#88 = ADVANCED_FACE ( 'NONE', ( #186 ), #45, .T. ) ;
#89 = VECTOR ( 'NONE', #48, 1000.000000000000000 ) ;
#90 = FACE_OUTER_BOUND ( 'NONE', #152, .T. ) ;
#91 = CARTESIAN_POINT ( 'NONE',  ( 0.000000000000000000, 0.000000000000000000, 10.00000000000000000 ) ) ;
#92 = CALENDAR_DATE ( 2023, 13, 2 ) ;
#93 = ADVANCED_FACE ( 'NONE', ( #77 ), #231, .F. ) ;
#94 = LOCAL_TIME ( 8, 31, 40.00000000000000000, #144 ) ;
#95 = DATE_AND_TIME ( #92, #222 ) ;
#96 = PERSON_AND_ORGANIZATION ( #114, #38 ) ;
#97 = SECURITY_CLASSIFICATION_LEVEL ( 'unclassified' ) ;
#98 = CALENDAR_DATE ( 2023, 13, 2 ) ;
#99 = CARTESIAN_POINT ( 'NONE',  ( 12.50000000000000000, 1.530808498934191521E-15, 500.0000000000000000 ) ) ;
#100 = AXIS2_PLACEMENT_3D ( 'NONE', #15, #101, #203 ) ;
#101 = DIRECTION ( 'NONE',  ( 0.000000000000000000, 0.000000000000000000, 1.000000000000000000 ) ) ;
#102 = AXIS2_PLACEMENT_3D ( 'NONE', #244, #132, #217 ) ;
#103 = DIRECTION ( 'NONE',  ( -0.000000000000000000, -0.000000000000000000, -1.000000000000000000 ) ) ;
#104 = EDGE_LOOP ( 'NONE', ( #136, #148 ) ) ;
#105 = CARTESIAN_POINT ( 'NONE',  ( 16.00000000000000000, 1.959434878635765131E-15, 10.00000000000000000 ) ) ;
#106 = AXIS2_PLACEMENT_3D ( 'NONE', #209, #147, #182 ) ;
#107 = PLANE ( 'NONE',  #65 ) ;
#108 = ADVANCED_BREP_SHAPE_REPRESENTATION ( 'f6ed', ( #197, #159 ), #160 ) ;
#109 = CARTESIAN_POINT ( 'NONE',  ( 0.000000000000000000, 0.000000000000000000, 10.00000000000000000 ) ) ;
#110 = APPLICATION_CONTEXT ( 'configuration controlled 3d designs of mechanical parts and assemblies' ) ;
#111 = SECURITY_CLASSIFICATION ( '', '', #97 ) ;
#112 = VERTEX_POINT ( 'NONE', #188 ) ;
#113 = ORIENTED_EDGE ( 'NONE', *, *, #36, .F. ) ;
#114 = PERSON ( 'NEURÈENÝ', 'NEURÈENÝ', 'NEURÈENÝ', ('NEURÈENÝ'), ('NEURÈENÝ'), ('NEURÈENÝ') ) ;
#115 = PRODUCT_DEFINITION_FORMATION_WITH_SPECIFIED_SOURCE ( 'LIBOVOLNÝ', '', #213, .NOT_KNOWN. ) ;
#116 = APPROVAL_STATUS ( 'not_yet_approved' ) ;
#117 = PERSON_AND_ORGANIZATION_ROLE ( 'design_supplier' ) ;
#118 = CALENDAR_DATE ( 2023, 13, 2 ) ;
#119 = DATE_AND_TIME ( #50, #43 ) ;
#120 = AXIS2_PLACEMENT_3D ( 'NONE', #190, #128, #125 ) ;
#121 = CC_DESIGN_PERSON_AND_ORGANIZATION_ASSIGNMENT ( #208, #228, ( #213 ) ) ;
#122 = CARTESIAN_POINT ( 'NONE',  ( 0.000000000000000000, 0.000000000000000000, 500.0000000000000000 ) ) ;
#123 = CC_DESIGN_PERSON_AND_ORGANIZATION_ASSIGNMENT ( #31, #253, ( #115 ) ) ;
#124 = CARTESIAN_POINT ( 'NONE',  ( -16.00000000000000000, 0.000000000000000000, 10.00000000000000000 ) ) ;
#125 = DIRECTION ( 'NONE',  ( 1.000000000000000000, 0.000000000000000000, 0.000000000000000000 ) ) ;
#126 = AXIS2_PLACEMENT_3D ( 'NONE', #109, #58, #81 ) ;
#127 = EDGE_CURVE ( 'NONE', #200, #243, #201, .T. ) ;
#128 = DIRECTION ( 'NONE',  ( 0.000000000000000000, 0.000000000000000000, 1.000000000000000000 ) ) ;
#129 = CARTESIAN_POINT ( 'NONE',  ( 0.000000000000000000, 0.000000000000000000, 500.0000000000000000 ) ) ;
#130 = CARTESIAN_POINT ( 'NONE',  ( 12.50000000000000000, 1.530808498934191521E-15, 500.0000000000000000 ) ) ;
#131 = PRODUCT_DEFINITION_SHAPE ( 'NONE', 'NONE',  #64 ) ;
#132 = DIRECTION ( 'NONE',  ( -0.000000000000000000, -0.000000000000000000, -1.000000000000000000 ) ) ;
#133 = ORIENTED_EDGE ( 'NONE', *, *, #10, .T. ) ;
#134 = ORIENTED_EDGE ( 'NONE', *, *, #2, .T. ) ;
#135 = CARTESIAN_POINT ( 'NONE',  ( 0.000000000000000000, 0.000000000000000000, 500.0000000000000000 ) ) ;
#136 = ORIENTED_EDGE ( 'NONE', *, *, #2, .F. ) ;
#137 = APPROVAL_STATUS ( 'not_yet_approved' ) ;
#138 = DIRECTION ( 'NONE',  ( 1.000000000000000000, 0.000000000000000000, -0.000000000000000000 ) ) ;
#139 = CC_DESIGN_PERSON_AND_ORGANIZATION_ASSIGNMENT ( #96, #19, ( #64 ) ) ;
#140 = ADVANCED_FACE ( 'NONE', ( #90 ), #46, .T. ) ;
#141 = VECTOR ( 'NONE', #170, 1000.000000000000000 ) ;
#142 = CARTESIAN_POINT ( 'NONE',  ( -12.50000000000000000, 0.000000000000000000, 500.0000000000000000 ) ) ;
#143 = DIRECTION ( 'NONE',  ( 1.000000000000000000, 0.000000000000000000, 0.000000000000000000 ) ) ;
#144 = COORDINATED_UNIVERSAL_TIME_OFFSET ( 1, 0, .AHEAD. ) ;
#145 = CC_DESIGN_APPROVAL ( #57, ( #64 ) ) ;
#146 = CYLINDRICAL_SURFACE ( 'NONE', #106, 12.50000000000000000 ) ;
#147 = DIRECTION ( 'NONE',  ( -0.000000000000000000, -0.000000000000000000, -1.000000000000000000 ) ) ;
#148 = ORIENTED_EDGE ( 'NONE', *, *, #205, .F. ) ;
#149 = DIRECTION ( 'NONE',  ( -1.000000000000000000, 0.000000000000000000, 0.000000000000000000 ) ) ;
#150 = CLOSED_SHELL ( 'NONE', ( #54, #26, #88, #41, #93, #225, #140 ) ) ;
#151 = FACE_OUTER_BOUND ( 'NONE', #11, .T. ) ;
#152 = EDGE_LOOP ( 'NONE', ( #214, #246 ) ) ;
#153 = FACE_OUTER_BOUND ( 'NONE', #63, .T. ) ;
#154 = CIRCLE ( 'NONE', #34, 12.50000000000000000 ) ;
#155 = ORIENTED_EDGE ( 'NONE', *, *, #83, .T. ) ;
#156 = EDGE_LOOP ( 'NONE', ( #157, #133, #155, #87 ) ) ;
#157 = ORIENTED_EDGE ( 'NONE', *, *, #164, .F. ) ;
#158 = COORDINATED_UNIVERSAL_TIME_OFFSET ( 1, 0, .AHEAD. ) ;
#159 = AXIS2_PLACEMENT_3D ( 'NONE', #29, #17, #240 ) ;
#160 =( GEOMETRIC_REPRESENTATION_CONTEXT ( 3 ) GLOBAL_UNCERTAINTY_ASSIGNED_CONTEXT ( ( #245 ) ) GLOBAL_UNIT_ASSIGNED_CONTEXT ( ( #162, #76, #30 ) ) REPRESENTATION_CONTEXT ( 'NONE', 'WORKASPACE' ) );
#161 = SHAPE_DEFINITION_REPRESENTATION ( #131, #108 ) ;
#162 =( LENGTH_UNIT ( ) NAMED_UNIT ( * ) SI_UNIT ( .MILLI., .METRE. ) );
#163 = APPLICATION_PROTOCOL_DEFINITION ( 'international standard', 'config_control_design', 1994, #195 ) ;
#164 = EDGE_CURVE ( 'NONE', #112, #200, #32, .T. ) ;
#165 = DIRECTION ( 'NONE',  ( 1.000000000000000000, 0.000000000000000000, 0.000000000000000000 ) ) ;
#166 = DIRECTION ( 'NONE',  ( 0.000000000000000000, 0.000000000000000000, 1.000000000000000000 ) ) ;
#167 = DIRECTION ( 'NONE',  ( -0.000000000000000000, -0.000000000000000000, -1.000000000000000000 ) ) ;
#168 = DIRECTION ( 'NONE',  ( -0.000000000000000000, -0.000000000000000000, -1.000000000000000000 ) ) ;
#169 = EDGE_LOOP ( 'NONE', ( #219, #5 ) ) ;
#170 = DIRECTION ( 'NONE',  ( -0.000000000000000000, -0.000000000000000000, -1.000000000000000000 ) ) ;
#171 = APPROVAL_PERSON_ORGANIZATION ( #16, #251, #239 ) ;
#172 = ORIENTED_EDGE ( 'NONE', *, *, #72, .F. ) ;
#173 = EDGE_CURVE ( 'NONE', #200, #112, #185, .T. ) ;
#174 = CC_DESIGN_APPROVAL ( #251, ( #111 ) ) ;
#175 = DIRECTION ( 'NONE',  ( 0.000000000000000000, 0.000000000000000000, 1.000000000000000000 ) ) ;
#176 = APPROVAL_DATE_TIME ( #119, #248 ) ;
#177 = DIRECTION ( 'NONE',  ( 0.000000000000000000, 0.000000000000000000, 1.000000000000000000 ) ) ;
#178 = CIRCLE ( 'NONE', #238, 12.50000000000000000 ) ;
#179 = APPROVAL_DATE_TIME ( #95, #251 ) ;
#180 = COORDINATED_UNIVERSAL_TIME_OFFSET ( 1, 0, .AHEAD. ) ;
#181 = APPLICATION_PROTOCOL_DEFINITION ( 'international standard', 'config_control_design', 1994, #110 ) ;
#182 = DIRECTION ( 'NONE',  ( -1.000000000000000000, 0.000000000000000000, 0.000000000000000000 ) ) ;
#183 = DIRECTION ( 'NONE',  ( 1.000000000000000000, 0.000000000000000000, -0.000000000000000000 ) ) ;
#184 = FACE_BOUND ( 'NONE', #104, .T. ) ;
#185 = CIRCLE ( 'NONE', #85, 16.00000000000000000 ) ;
#186 = FACE_OUTER_BOUND ( 'NONE', #6, .T. ) ;
#187 = VECTOR ( 'NONE', #103, 1000.000000000000000 ) ;
#188 = CARTESIAN_POINT ( 'NONE',  ( 16.00000000000000000, 1.959434878635765131E-15, 10.00000000000000000 ) ) ;
#189 = CC_DESIGN_DATE_AND_TIME_ASSIGNMENT ( #68, #194, ( #64 ) ) ;
#190 = CARTESIAN_POINT ( 'NONE',  ( 0.000000000000000000, 0.000000000000000000, 10.00000000000000000 ) ) ;
#191 = ORIENTED_EDGE ( 'NONE', *, *, #173, .F. ) ;
#192 = APPROVAL_PERSON_ORGANIZATION ( #55, #57, #53 ) ;
#193 = VERTEX_POINT ( 'NONE', #250 ) ;
#194 = DATE_TIME_ROLE ( 'creation_date' ) ;
#195 = APPLICATION_CONTEXT ( 'configuration controlled 3d designs of mechanical parts and assemblies' ) ;
#196 = AXIS2_PLACEMENT_3D ( 'NONE', #78, #167, #149 ) ;
#197 = MANIFOLD_SOLID_BREP ( 'Pøidat vysunutím3', #150 ) ;
#198 = ORIENTED_EDGE ( 'NONE', *, *, #173, .T. ) ;
#199 = CC_DESIGN_PERSON_AND_ORGANIZATION_ASSIGNMENT ( #207, #202, ( #111 ) ) ;
#200 = VERTEX_POINT ( 'NONE', #124 ) ;
#201 = LINE ( 'NONE', #86, #89 ) ;
#202 = PERSON_AND_ORGANIZATION_ROLE ( 'classification_officer' ) ;
#203 = DIRECTION ( 'NONE',  ( 1.000000000000000000, 0.000000000000000000, 0.000000000000000000 ) ) ;
#204 = DATE_AND_TIME ( #18, #69 ) ;
#205 = EDGE_CURVE ( 'NONE', #84, #193, #227, .T. ) ;
#206 = CIRCLE ( 'NONE', #120, 12.50000000000000000 ) ;
#207 = PERSON_AND_ORGANIZATION ( #114, #38 ) ;
#208 = PERSON_AND_ORGANIZATION ( #114, #38 ) ;
#209 = CARTESIAN_POINT ( 'NONE',  ( 0.000000000000000000, 0.000000000000000000, 500.0000000000000000 ) ) ;
#210 = AXIS2_PLACEMENT_3D ( 'NONE', #51, #175, #14 ) ;
#211 = CARTESIAN_POINT ( 'NONE',  ( 0.000000000000000000, 0.000000000000000000, 10.00000000000000000 ) ) ;
#212 = CYLINDRICAL_SURFACE ( 'NONE', #126, 16.00000000000000000 ) ;
#213 = PRODUCT ( 'f6ed', 'f6ed', '', ( #241 ) ) ;
#214 = ORIENTED_EDGE ( 'NONE', *, *, #72, .T. ) ;
#215 = LOCAL_TIME ( 8, 31, 40.00000000000000000, #180 ) ;
#216 = DIRECTION ( 'NONE',  ( 0.000000000000000000, 0.000000000000000000, 1.000000000000000000 ) ) ;
#217 = DIRECTION ( 'NONE',  ( -1.000000000000000000, 0.000000000000000000, 0.000000000000000000 ) ) ;
#218 = EDGE_CURVE ( 'NONE', #236, #237, #178, .T. ) ;
#219 = ORIENTED_EDGE ( 'NONE', *, *, #59, .F. ) ;
#220 = CC_DESIGN_PERSON_AND_ORGANIZATION_ASSIGNMENT ( #254, #117, ( #115 ) ) ;
#221 = AXIS2_PLACEMENT_3D ( 'NONE', #135, #12, #138 ) ;
#222 = LOCAL_TIME ( 8, 31, 40.00000000000000000, #52 ) ;
#223 = CIRCLE ( 'NONE', #20, 16.00000000000000000 ) ;
#224 = APPROVAL_STATUS ( 'not_yet_approved' ) ;
#225 = ADVANCED_FACE ( 'NONE', ( #75 ), #146, .T. ) ;
#226 = DIRECTION ( 'NONE',  ( 0.000000000000000000, 0.000000000000000000, 1.000000000000000000 ) ) ;
#227 = CIRCLE ( 'NONE', #100, 12.50000000000000000 ) ;
#228 = PERSON_AND_ORGANIZATION_ROLE ( 'design_owner' ) ;
#229 = LINE ( 'NONE', #105, #141 ) ;
#230 = CIRCLE ( 'NONE', #252, 16.00000000000000000 ) ;
#231 = PLANE ( 'NONE',  #44 ) ;
#232 = CARTESIAN_POINT ( 'NONE',  ( 0.000000000000000000, 0.000000000000000000, 0.000000000000000000 ) ) ;
#233 = DESIGN_CONTEXT ( 'detailed design', #110, 'design' ) ;
#234 = PRODUCT_RELATED_PRODUCT_CATEGORY ( 'detail', '', ( #213 ) ) ;
#235 = ORIENTED_EDGE ( 'NONE', *, *, #79, .T. ) ;
#236 = VERTEX_POINT ( 'NONE', #99 ) ;
#237 = VERTEX_POINT ( 'NONE', #142 ) ;
#238 = AXIS2_PLACEMENT_3D ( 'NONE', #122, #226, #143 ) ;
#239 = APPROVAL_ROLE ( '' ) ;
#240 = DIRECTION ( 'NONE',  ( 1.000000000000000000, 0.000000000000000000, 0.000000000000000000 ) ) ;
#241 = MECHANICAL_CONTEXT ( 'NONE', #195, 'mechanical' ) ;
#242 = CC_DESIGN_DATE_AND_TIME_ASSIGNMENT ( #204, #70, ( #111 ) ) ;
#243 = VERTEX_POINT ( 'NONE', #71 ) ;
#244 = CARTESIAN_POINT ( 'NONE',  ( 0.000000000000000000, 0.000000000000000000, 10.00000000000000000 ) ) ;
#245 = UNCERTAINTY_MEASURE_WITH_UNIT (LENGTH_MEASURE( 1.000000000000000082E-05 ), #162, 'distance_accuracy_value', 'NONE');
#246 = ORIENTED_EDGE ( 'NONE', *, *, #218, .T. ) ;
#247 = ORIENTED_EDGE ( 'NONE', *, *, #218, .F. ) ;
#248 = APPROVAL ( #137, 'NEURÈENÝ' ) ;
#249 = PERSON_AND_ORGANIZATION ( #114, #38 ) ;
#250 = CARTESIAN_POINT ( 'NONE',  ( -12.50000000000000000, 0.000000000000000000, 10.00000000000000000 ) ) ;
#251 = APPROVAL ( #224, 'NEURÈENÝ' ) ;
#252 = AXIS2_PLACEMENT_3D ( 'NONE', #7, #166, #40 ) ;
#253 = PERSON_AND_ORGANIZATION_ROLE ( 'creator' ) ;
#254 = PERSON_AND_ORGANIZATION ( #114, #38 ) ;
#255 = CC_DESIGN_SECURITY_CLASSIFICATION ( #111, ( #115 ) ) ;
ENDSEC;
END-ISO-10303-21;
