ISO-10303-21;
HEADER;
FILE_DESCRIPTION (( 'STEP AP203' ),
    '1' );
FILE_NAME ('9f48.STEP',
    '2023-02-13T14:17:20',
    ( '' ),
    ( '' ),
    'SwSTEP 2.0',
    'SolidWorks 2019',
    '' );
FILE_SCHEMA (( 'CONFIG_CONTROL_DESIGN' ));
ENDSEC;

DATA;
#1 = CYLINDRICAL_SURFACE ( 'NONE', #251, 4.099999999999999645 ) ;
#2 = EDGE_LOOP ( 'NONE', ( #244, #240 ) ) ;
#3 = VERTEX_POINT ( 'NONE', #181 ) ;
#4 = AXIS2_PLACEMENT_3D ( 'NONE', #71, #233, #136 ) ;
#5 = CARTESIAN_POINT ( 'NONE',  ( 7.000000000000000000, 8.572527594031471218E-16, 0.000000000000000000 ) ) ;
#6 = CARTESIAN_POINT ( 'NONE',  ( 4.099999999999999645, 5.021051876504147385E-16, 6.500000000000000000 ) ) ;
#7 = VERTEX_POINT ( 'NONE', #6 ) ;
#8 = ADVANCED_FACE ( 'NONE', ( #59 ), #24, .F. ) ;
#9 = DIRECTION ( 'NONE',  ( -0.000000000000000000, -0.000000000000000000, -1.000000000000000000 ) ) ;
#10 = COORDINATED_UNIVERSAL_TIME_OFFSET ( 1, 0, .AHEAD. ) ;
#11 = DIRECTION ( 'NONE',  ( -0.000000000000000000, -0.000000000000000000, -1.000000000000000000 ) ) ;
#12 = CIRCLE ( 'NONE', #132, 7.000000000000000000 ) ;
#13 = CARTESIAN_POINT ( 'NONE',  ( 0.000000000000000000, 0.000000000000000000, 6.500000000000000000 ) ) ;
#14 = LOCAL_TIME ( 15, 17, 20.00000000000000000, #243 ) ;
#15 = SHAPE_DEFINITION_REPRESENTATION ( #219, #205 ) ;
#16 = CARTESIAN_POINT ( 'NONE',  ( 0.000000000000000000, 0.000000000000000000, 6.500000000000000000 ) ) ;
#17 = CIRCLE ( 'NONE', #216, 4.099999999999999645 ) ;
#18 = APPLICATION_CONTEXT ( 'configuration controlled 3d designs of mechanical parts and assemblies' ) ;
#19 =( NAMED_UNIT ( * ) PLANE_ANGLE_UNIT ( ) SI_UNIT ( $, .RADIAN. ) );
#20 = AXIS2_PLACEMENT_3D ( 'NONE', #156, #153, #96 ) ;
#21 = APPROVAL_PERSON_ORGANIZATION ( #66, #147, #148 ) ;
#22 = VERTEX_POINT ( 'NONE', #142 ) ;
#23 = CC_DESIGN_PERSON_AND_ORGANIZATION_ASSIGNMENT ( #207, #169, ( #149 ) ) ;
#24 = PLANE ( 'NONE',  #50 ) ;
#25 = FACE_OUTER_BOUND ( 'NONE', #222, .T. ) ;
#26 = DIRECTION ( 'NONE',  ( 0.000000000000000000, 0.000000000000000000, 1.000000000000000000 ) ) ;
#27 = ORIENTED_EDGE ( 'NONE', *, *, #150, .T. ) ;
#28 = DATE_TIME_ROLE ( 'creation_date' ) ;
#29 = EDGE_LOOP ( 'NONE', ( #204, #162, #146, #126 ) ) ;
#30 = EDGE_CURVE ( 'NONE', #22, #206, #212, .T. ) ;
#31 = LINE ( 'NONE', #85, #125 ) ;
#32 = PERSON_AND_ORGANIZATION_ROLE ( 'creator' ) ;
#33 = DIRECTION ( 'NONE',  ( 0.000000000000000000, 0.000000000000000000, 1.000000000000000000 ) ) ;
#34 = PRODUCT_RELATED_PRODUCT_CATEGORY ( 'detail', '', ( #253 ) ) ;
#35 = DIRECTION ( 'NONE',  ( 1.000000000000000000, 0.000000000000000000, -0.000000000000000000 ) ) ;
#36 = DIRECTION ( 'NONE',  ( 1.000000000000000000, 0.000000000000000000, 0.000000000000000000 ) ) ;
#37 = ADVANCED_FACE ( 'NONE', ( #25 ), #60, .T. ) ;
#38 = MECHANICAL_CONTEXT ( 'NONE', #88, 'mechanical' ) ;
#39 = VERTEX_POINT ( 'NONE', #5 ) ;
#40 = DIRECTION ( 'NONE',  ( 0.000000000000000000, 0.000000000000000000, 1.000000000000000000 ) ) ;
#41 = AXIS2_PLACEMENT_3D ( 'NONE', #92, #218, #249 ) ;
#42 = ORIENTED_EDGE ( 'NONE', *, *, #116, .T. ) ;
#43 = EDGE_CURVE ( 'NONE', #104, #120, #17, .T. ) ;
#44 = MANIFOLD_SOLID_BREP ( 'Pøidat vysunutím3', #67 ) ;
#45 = CARTESIAN_POINT ( 'NONE',  ( -7.000000000000000000, 0.000000000000000000, 6.500000000000000000 ) ) ;
#46 = AXIS2_PLACEMENT_3D ( 'NONE', #197, #26, #176 ) ;
#47 = APPROVAL_STATUS ( 'not_yet_approved' ) ;
#48 = PERSON_AND_ORGANIZATION ( #123, #217 ) ;
#49 = APPROVAL_ROLE ( '' ) ;
#50 = AXIS2_PLACEMENT_3D ( 'NONE', #140, #100, #241 ) ;
#51 = CARTESIAN_POINT ( 'NONE',  ( 4.099999999999999645, 5.021051876504147385E-16, 160.0000000000000000 ) ) ;
#52 = EDGE_CURVE ( 'NONE', #22, #3, #84, .T. ) ;
#53 = DIRECTION ( 'NONE',  ( 0.000000000000000000, 0.000000000000000000, 1.000000000000000000 ) ) ;
#54 = CARTESIAN_POINT ( 'NONE',  ( 0.000000000000000000, 0.000000000000000000, 6.500000000000000000 ) ) ;
#55 = CARTESIAN_POINT ( 'NONE',  ( 0.000000000000000000, 0.000000000000000000, 160.0000000000000000 ) ) ;
#56 = DIRECTION ( 'NONE',  ( -1.000000000000000000, 0.000000000000000000, 0.000000000000000000 ) ) ;
#57 = APPLICATION_PROTOCOL_DEFINITION ( 'international standard', 'config_control_design', 1994, #18 ) ;
#58 = ORIENTED_EDGE ( 'NONE', *, *, #43, .F. ) ;
#59 = FACE_OUTER_BOUND ( 'NONE', #2, .T. ) ;
#60 = PLANE ( 'NONE',  #113 ) ;
#61 = EDGE_CURVE ( 'NONE', #3, #39, #202, .T. ) ;
#62 = ORIENTED_EDGE ( 'NONE', *, *, #52, .T. ) ;
#63 = ORIENTED_EDGE ( 'NONE', *, *, #43, .T. ) ;
#64 = DIRECTION ( 'NONE',  ( 0.000000000000000000, 0.000000000000000000, 1.000000000000000000 ) ) ;
#65 = ADVANCED_FACE ( 'NONE', ( #131 ), #248, .T. ) ;
#66 = PERSON_AND_ORGANIZATION ( #123, #217 ) ;
#67 = CLOSED_SHELL ( 'NONE', ( #194, #121, #250, #237, #8, #65, #37 ) ) ;
#68 = CC_DESIGN_APPROVAL ( #147, ( #149 ) ) ;
#69 = EDGE_CURVE ( 'NONE', #104, #124, #31, .T. ) ;
#70 = DIRECTION ( 'NONE',  ( -1.000000000000000000, 0.000000000000000000, 0.000000000000000000 ) ) ;
#71 = CARTESIAN_POINT ( 'NONE',  ( 0.000000000000000000, 0.000000000000000000, 6.500000000000000000 ) ) ;
#72 = DIRECTION ( 'NONE',  ( 1.000000000000000000, 0.000000000000000000, 0.000000000000000000 ) ) ;
#73 = CARTESIAN_POINT ( 'NONE',  ( 4.099999999999999645, 5.021051876504147385E-16, 160.0000000000000000 ) ) ;
#74 = LINE ( 'NONE', #73, #137 ) ;
#75 =( LENGTH_UNIT ( ) NAMED_UNIT ( * ) SI_UNIT ( .MILLI., .METRE. ) );
#76 = ORIENTED_EDGE ( 'NONE', *, *, #61, .T. ) ;
#77 = EDGE_LOOP ( 'NONE', ( #144, #198 ) ) ;
#78 = CC_DESIGN_APPROVAL ( #80, ( #190 ) ) ;
#79 = DIRECTION ( 'NONE',  ( 1.000000000000000000, 0.000000000000000000, -0.000000000000000000 ) ) ;
#80 = APPROVAL ( #179, 'NEURÈENÝ' ) ;
#81 = ORIENTED_EDGE ( 'NONE', *, *, #150, .F. ) ;
#82 = CIRCLE ( 'NONE', #174, 7.000000000000000000 ) ;
#83 = LOCAL_TIME ( 15, 17, 20.00000000000000000, #130 ) ;
#84 = LINE ( 'NONE', #45, #192 ) ;
#85 = CARTESIAN_POINT ( 'NONE',  ( -4.099999999999999645, 0.000000000000000000, 160.0000000000000000 ) ) ;
#86 = VECTOR ( 'NONE', #115, 1000.000000000000000 ) ;
#87 = CC_DESIGN_APPROVAL ( #154, ( #188 ) ) ;
#88 = APPLICATION_CONTEXT ( 'configuration controlled 3d designs of mechanical parts and assemblies' ) ;
#89 = DIRECTION ( 'NONE',  ( 0.000000000000000000, 0.000000000000000000, 1.000000000000000000 ) ) ;
#90 = APPROVAL_STATUS ( 'not_yet_approved' ) ;
#91 =( GEOMETRIC_REPRESENTATION_CONTEXT ( 3 ) GLOBAL_UNCERTAINTY_ASSIGNED_CONTEXT ( ( #230 ) ) GLOBAL_UNIT_ASSIGNED_CONTEXT ( ( #75, #19, #254 ) ) REPRESENTATION_CONTEXT ( 'NONE', 'WORKASPACE' ) );
#92 = CARTESIAN_POINT ( 'NONE',  ( 0.000000000000000000, 0.000000000000000000, 160.0000000000000000 ) ) ;
#93 = CC_DESIGN_DATE_AND_TIME_ASSIGNMENT ( #182, #245, ( #188 ) ) ;
#94 = COORDINATED_UNIVERSAL_TIME_OFFSET ( 1, 0, .AHEAD. ) ;
#95 = CARTESIAN_POINT ( 'NONE',  ( 0.000000000000000000, 0.000000000000000000, 6.500000000000000000 ) ) ;
#96 = DIRECTION ( 'NONE',  ( 1.000000000000000000, 0.000000000000000000, 0.000000000000000000 ) ) ;
#97 = LINE ( 'NONE', #195, #86 ) ;
#98 = CC_DESIGN_PERSON_AND_ORGANIZATION_ASSIGNMENT ( #211, #187, ( #149 ) ) ;
#99 = ORIENTED_EDGE ( 'NONE', *, *, #186, .T. ) ;
#100 = DIRECTION ( 'NONE',  ( 0.000000000000000000, 0.000000000000000000, 1.000000000000000000 ) ) ;
#101 = EDGE_LOOP ( 'NONE', ( #118, #122 ) ) ;
#102 = EDGE_LOOP ( 'NONE', ( #81, #58, #199, #99 ) ) ;
#103 = SECURITY_CLASSIFICATION_LEVEL ( 'unclassified' ) ;
#104 = VERTEX_POINT ( 'NONE', #109 ) ;
#105 = PERSON_AND_ORGANIZATION_ROLE ( 'classification_officer' ) ;
#106 = CC_DESIGN_SECURITY_CLASSIFICATION ( #188, ( #149 ) ) ;
#107 = DATE_AND_TIME ( #210, #83 ) ;
#108 = DIRECTION ( 'NONE',  ( 1.000000000000000000, 0.000000000000000000, 0.000000000000000000 ) ) ;
#109 = CARTESIAN_POINT ( 'NONE',  ( -4.099999999999999645, 0.000000000000000000, 160.0000000000000000 ) ) ;
#110 = EDGE_CURVE ( 'NONE', #206, #22, #12, .T. ) ;
#111 = DIRECTION ( 'NONE',  ( 0.000000000000000000, 0.000000000000000000, 1.000000000000000000 ) ) ;
#112 = AXIS2_PLACEMENT_3D ( 'NONE', #16, #89, #35 ) ;
#113 = AXIS2_PLACEMENT_3D ( 'NONE', #180, #242, #79 ) ;
#114 = DIRECTION ( 'NONE',  ( -0.000000000000000000, -0.000000000000000000, -1.000000000000000000 ) ) ;
#115 = DIRECTION ( 'NONE',  ( -0.000000000000000000, -0.000000000000000000, -1.000000000000000000 ) ) ;
#116 = EDGE_CURVE ( 'NONE', #120, #104, #246, .T. ) ;
#117 = CIRCLE ( 'NONE', #184, 4.099999999999999645 ) ;
#118 = ORIENTED_EDGE ( 'NONE', *, *, #186, .F. ) ;
#119 = APPROVAL_DATE_TIME ( #223, #80 ) ;
#120 = VERTEX_POINT ( 'NONE', #51 ) ;
#121 = ADVANCED_FACE ( 'NONE', ( #236 ), #234, .T. ) ;
#122 = ORIENTED_EDGE ( 'NONE', *, *, #167, .F. ) ;
#123 = PERSON ( 'NEURÈENÝ', 'NEURÈENÝ', 'NEURÈENÝ', ('NEURÈENÝ'), ('NEURÈENÝ'), ('NEURÈENÝ') ) ;
#124 = VERTEX_POINT ( 'NONE', #173 ) ;
#125 = VECTOR ( 'NONE', #168, 1000.000000000000000 ) ;
#126 = ORIENTED_EDGE ( 'NONE', *, *, #52, .F. ) ;
#127 = PERSON_AND_ORGANIZATION ( #123, #217 ) ;
#128 = CC_DESIGN_PERSON_AND_ORGANIZATION_ASSIGNMENT ( #127, #105, ( #188 ) ) ;
#129 = CARTESIAN_POINT ( 'NONE',  ( 0.000000000000000000, 0.000000000000000000, 160.0000000000000000 ) ) ;
#130 = COORDINATED_UNIVERSAL_TIME_OFFSET ( 1, 0, .AHEAD. ) ;
#131 = FACE_OUTER_BOUND ( 'NONE', #102, .T. ) ;
#132 = AXIS2_PLACEMENT_3D ( 'NONE', #13, #111, #36 ) ;
#133 = LOCAL_TIME ( 15, 17, 20.00000000000000000, #94 ) ;
#134 = DIRECTION ( 'NONE',  ( -0.000000000000000000, -0.000000000000000000, -1.000000000000000000 ) ) ;
#135 = CALENDAR_DATE ( 2023, 13, 2 ) ;
#136 = DIRECTION ( 'NONE',  ( -1.000000000000000000, 0.000000000000000000, 0.000000000000000000 ) ) ;
#137 = VECTOR ( 'NONE', #191, 1000.000000000000000 ) ;
#138 = CARTESIAN_POINT ( 'NONE',  ( 7.000000000000000000, 8.572527594031471218E-16, 6.500000000000000000 ) ) ;
#139 = PERSON_AND_ORGANIZATION ( #123, #217 ) ;
#140 = CARTESIAN_POINT ( 'NONE',  ( 0.000000000000000000, 0.000000000000000000, 0.000000000000000000 ) ) ;
#141 = EDGE_CURVE ( 'NONE', #39, #3, #82, .T. ) ;
#142 = CARTESIAN_POINT ( 'NONE',  ( -7.000000000000000000, 0.000000000000000000, 6.500000000000000000 ) ) ;
#143 = APPROVAL_ROLE ( '' ) ;
#144 = ORIENTED_EDGE ( 'NONE', *, *, #30, .T. ) ;
#145 = DATE_AND_TIME ( #201, #14 ) ;
#146 = ORIENTED_EDGE ( 'NONE', *, *, #141, .T. ) ;
#147 = APPROVAL ( #47, 'NEURÈENÝ' ) ;
#148 = APPROVAL_ROLE ( '' ) ;
#149 = PRODUCT_DEFINITION_FORMATION_WITH_SPECIFIED_SOURCE ( 'LIBOVOLNÝ', '', #253, .NOT_KNOWN. ) ;
#150 = EDGE_CURVE ( 'NONE', #120, #7, #74, .T. ) ;
#151 = DESIGN_CONTEXT ( 'detailed design', #18, 'design' ) ;
#152 = PERSON_AND_ORGANIZATION ( #123, #217 ) ;
#153 = DIRECTION ( 'NONE',  ( 0.000000000000000000, 0.000000000000000000, 1.000000000000000000 ) ) ;
#154 = APPROVAL ( #90, 'NEURÈENÝ' ) ;
#155 = APPROVAL_DATE_TIME ( #157, #154 ) ;
#156 = CARTESIAN_POINT ( 'NONE',  ( 0.000000000000000000, 0.000000000000000000, 6.500000000000000000 ) ) ;
#157 = DATE_AND_TIME ( #135, #133 ) ;
#158 = DIRECTION ( 'NONE',  ( -1.000000000000000000, 0.000000000000000000, 0.000000000000000000 ) ) ;
#159 = AXIS2_PLACEMENT_3D ( 'NONE', #129, #11, #70 ) ;
#160 = PERSON_AND_ORGANIZATION ( #123, #217 ) ;
#161 = ORIENTED_EDGE ( 'NONE', *, *, #69, .F. ) ;
#162 = ORIENTED_EDGE ( 'NONE', *, *, #165, .T. ) ;
#163 = CARTESIAN_POINT ( 'NONE',  ( 0.000000000000000000, 0.000000000000000000, 160.0000000000000000 ) ) ;
#164 = DIRECTION ( 'NONE',  ( 1.000000000000000000, 0.000000000000000000, 0.000000000000000000 ) ) ;
#165 = EDGE_CURVE ( 'NONE', #206, #39, #97, .T. ) ;
#166 = EDGE_LOOP ( 'NONE', ( #183, #27, #177, #161 ) ) ;
#167 = EDGE_CURVE ( 'NONE', #7, #124, #232, .T. ) ;
#168 = DIRECTION ( 'NONE',  ( -0.000000000000000000, -0.000000000000000000, -1.000000000000000000 ) ) ;
#169 = PERSON_AND_ORGANIZATION_ROLE ( 'design_supplier' ) ;
#170 = CC_DESIGN_PERSON_AND_ORGANIZATION_ASSIGNMENT ( #48, #32, ( #190 ) ) ;
#171 = FACE_OUTER_BOUND ( 'NONE', #239, .T. ) ;
#172 = AXIS2_PLACEMENT_3D ( 'NONE', #189, #64, #108 ) ;
#173 = CARTESIAN_POINT ( 'NONE',  ( -4.099999999999999645, 0.000000000000000000, 6.500000000000000000 ) ) ;
#174 = AXIS2_PLACEMENT_3D ( 'NONE', #252, #33, #72 ) ;
#175 = PLANE ( 'NONE',  #112 ) ;
#176 = DIRECTION ( 'NONE',  ( 1.000000000000000000, 0.000000000000000000, 0.000000000000000000 ) ) ;
#177 = ORIENTED_EDGE ( 'NONE', *, *, #167, .T. ) ;
#178 = ORIENTED_EDGE ( 'NONE', *, *, #165, .F. ) ;
#179 = APPROVAL_STATUS ( 'not_yet_approved' ) ;
#180 = CARTESIAN_POINT ( 'NONE',  ( 0.000000000000000000, 0.000000000000000000, 160.0000000000000000 ) ) ;
#181 = CARTESIAN_POINT ( 'NONE',  ( -7.000000000000000000, 0.000000000000000000, 0.000000000000000000 ) ) ;
#182 = DATE_AND_TIME ( #247, #255 ) ;
#183 = ORIENTED_EDGE ( 'NONE', *, *, #116, .F. ) ;
#184 = AXIS2_PLACEMENT_3D ( 'NONE', #54, #53, #214 ) ;
#185 = LOCAL_TIME ( 15, 17, 20.00000000000000000, #225 ) ;
#186 = EDGE_CURVE ( 'NONE', #124, #7, #117, .T. ) ;
#187 = PERSON_AND_ORGANIZATION_ROLE ( 'creator' ) ;
#188 = SECURITY_CLASSIFICATION ( '', '', #103 ) ;
#189 = CARTESIAN_POINT ( 'NONE',  ( 0.000000000000000000, 0.000000000000000000, 0.000000000000000000 ) ) ;
#190 = PRODUCT_DEFINITION ( 'NEZNÁMÝ', '', #149, #151 ) ;
#191 = DIRECTION ( 'NONE',  ( -0.000000000000000000, -0.000000000000000000, -1.000000000000000000 ) ) ;
#192 = VECTOR ( 'NONE', #9, 1000.000000000000000 ) ;
#193 = FACE_OUTER_BOUND ( 'NONE', #77, .T. ) ;
#194 = ADVANCED_FACE ( 'NONE', ( #215 ), #1, .T. ) ;
#195 = CARTESIAN_POINT ( 'NONE',  ( 7.000000000000000000, 8.572527594031471218E-16, 6.500000000000000000 ) ) ;
#196 = APPLICATION_PROTOCOL_DEFINITION ( 'international standard', 'config_control_design', 1994, #88 ) ;
#197 = CARTESIAN_POINT ( 'NONE',  ( 0.000000000000000000, 0.000000000000000000, 0.000000000000000000 ) ) ;
#198 = ORIENTED_EDGE ( 'NONE', *, *, #110, .T. ) ;
#199 = ORIENTED_EDGE ( 'NONE', *, *, #69, .T. ) ;
#200 = DIRECTION ( 'NONE',  ( 1.000000000000000000, 0.000000000000000000, 0.000000000000000000 ) ) ;
#201 = CALENDAR_DATE ( 2023, 13, 2 ) ;
#202 = CIRCLE ( 'NONE', #172, 7.000000000000000000 ) ;
#203 = APPROVAL_PERSON_ORGANIZATION ( #152, #154, #49 ) ;
#204 = ORIENTED_EDGE ( 'NONE', *, *, #110, .F. ) ;
#205 = ADVANCED_BREP_SHAPE_REPRESENTATION ( '9f48', ( #44, #46 ), #91 ) ;
#206 = VERTEX_POINT ( 'NONE', #138 ) ;
#207 = PERSON_AND_ORGANIZATION ( #123, #217 ) ;
#208 = CC_DESIGN_DATE_AND_TIME_ASSIGNMENT ( #145, #28, ( #190 ) ) ;
#209 = APPROVAL_PERSON_ORGANIZATION ( #139, #80, #143 ) ;
#210 = CALENDAR_DATE ( 2023, 13, 2 ) ;
#211 = PERSON_AND_ORGANIZATION ( #123, #217 ) ;
#212 = CIRCLE ( 'NONE', #235, 7.000000000000000000 ) ;
#213 = CYLINDRICAL_SURFACE ( 'NONE', #4, 7.000000000000000000 ) ;
#214 = DIRECTION ( 'NONE',  ( 1.000000000000000000, 0.000000000000000000, 0.000000000000000000 ) ) ;
#215 = FACE_OUTER_BOUND ( 'NONE', #166, .T. ) ;
#216 = AXIS2_PLACEMENT_3D ( 'NONE', #163, #226, #164 ) ;
#217 = ORGANIZATION ( 'NEURÈENÝ', 'NEURÈENÝ', '' ) ;
#218 = DIRECTION ( 'NONE',  ( 0.000000000000000000, 0.000000000000000000, 1.000000000000000000 ) ) ;
#219 = PRODUCT_DEFINITION_SHAPE ( 'NONE', 'NONE',  #190 ) ;
#220 = CC_DESIGN_PERSON_AND_ORGANIZATION_ASSIGNMENT ( #160, #238, ( #253 ) ) ;
#221 = CALENDAR_DATE ( 2023, 13, 2 ) ;
#222 = EDGE_LOOP ( 'NONE', ( #63, #42 ) ) ;
#223 = DATE_AND_TIME ( #221, #185 ) ;
#224 = CARTESIAN_POINT ( 'NONE',  ( 0.000000000000000000, 0.000000000000000000, 6.500000000000000000 ) ) ;
#225 = COORDINATED_UNIVERSAL_TIME_OFFSET ( 1, 0, .AHEAD. ) ;
#226 = DIRECTION ( 'NONE',  ( 0.000000000000000000, 0.000000000000000000, 1.000000000000000000 ) ) ;
#227 = ORIENTED_EDGE ( 'NONE', *, *, #30, .F. ) ;
#228 = APPROVAL_DATE_TIME ( #107, #147 ) ;
#229 = AXIS2_PLACEMENT_3D ( 'NONE', #95, #114, #158 ) ;
#230 = UNCERTAINTY_MEASURE_WITH_UNIT (LENGTH_MEASURE( 1.000000000000000082E-05 ), #75, 'distance_accuracy_value', 'NONE');
#231 = FACE_BOUND ( 'NONE', #101, .T. ) ;
#232 = CIRCLE ( 'NONE', #20, 4.099999999999999645 ) ;
#233 = DIRECTION ( 'NONE',  ( -0.000000000000000000, -0.000000000000000000, -1.000000000000000000 ) ) ;
#234 = CYLINDRICAL_SURFACE ( 'NONE', #229, 7.000000000000000000 ) ;
#235 = AXIS2_PLACEMENT_3D ( 'NONE', #224, #40, #200 ) ;
#236 = FACE_OUTER_BOUND ( 'NONE', #29, .T. ) ;
#237 = ADVANCED_FACE ( 'NONE', ( #231, #193 ), #175, .T. ) ;
#238 = PERSON_AND_ORGANIZATION_ROLE ( 'design_owner' ) ;
#239 = EDGE_LOOP ( 'NONE', ( #178, #227, #62, #76 ) ) ;
#240 = ORIENTED_EDGE ( 'NONE', *, *, #141, .F. ) ;
#241 = DIRECTION ( 'NONE',  ( 1.000000000000000000, 0.000000000000000000, -0.000000000000000000 ) ) ;
#242 = DIRECTION ( 'NONE',  ( 0.000000000000000000, 0.000000000000000000, 1.000000000000000000 ) ) ;
#243 = COORDINATED_UNIVERSAL_TIME_OFFSET ( 1, 0, .AHEAD. ) ;
#244 = ORIENTED_EDGE ( 'NONE', *, *, #61, .F. ) ;
#245 = DATE_TIME_ROLE ( 'classification_date' ) ;
#246 = CIRCLE ( 'NONE', #41, 4.099999999999999645 ) ;
#247 = CALENDAR_DATE ( 2023, 13, 2 ) ;
#248 = CYLINDRICAL_SURFACE ( 'NONE', #159, 4.099999999999999645 ) ;
#249 = DIRECTION ( 'NONE',  ( 1.000000000000000000, 0.000000000000000000, 0.000000000000000000 ) ) ;
#250 = ADVANCED_FACE ( 'NONE', ( #171 ), #213, .T. ) ;
#251 = AXIS2_PLACEMENT_3D ( 'NONE', #55, #134, #56 ) ;
#252 = CARTESIAN_POINT ( 'NONE',  ( 0.000000000000000000, 0.000000000000000000, 0.000000000000000000 ) ) ;
#253 = PRODUCT ( '9f48', '9f48', '', ( #38 ) ) ;
#254 =( NAMED_UNIT ( * ) SI_UNIT ( $, .STERADIAN. ) SOLID_ANGLE_UNIT ( ) );
#255 = LOCAL_TIME ( 15, 17, 20.00000000000000000, #10 ) ;
ENDSEC;
END-ISO-10303-21;
