ISO-10303-21;
HEADER;
FILE_DESCRIPTION (( 'STEP AP203' ),
    '1' );
FILE_NAME ('4caf.STEP',
    '2023-02-13T14:15:47',
    ( '' ),
    ( '' ),
    'SwSTEP 2.0',
    'SolidWorks 2019',
    '' );
FILE_SCHEMA (( 'CONFIG_CONTROL_DESIGN' ));
ENDSEC;

DATA;
#1 = CARTESIAN_POINT ( 'NONE',  ( -4.099999999999999645, 0.000000000000000000, 799.9999999999998863 ) ) ;
#2 = PERSON_AND_ORGANIZATION ( #240, #113 ) ;
#3 = LOCAL_TIME ( 15, 15, 47.00000000000000000, #83 ) ;
#4 = CARTESIAN_POINT ( 'NONE',  ( 0.000000000000000000, 0.000000000000000000, 6.500000000000000000 ) ) ;
#5 = EDGE_CURVE ( 'NONE', #206, #49, #207, .T. ) ;
#6 = COORDINATED_UNIVERSAL_TIME_OFFSET ( 1, 0, .AHEAD. ) ;
#7 = APPROVAL_PERSON_ORGANIZATION ( #32, #56, #169 ) ;
#8 = CARTESIAN_POINT ( 'NONE',  ( 0.000000000000000000, 0.000000000000000000, 6.500000000000000000 ) ) ;
#9 = ORIENTED_EDGE ( 'NONE', *, *, #225, .T. ) ;
#10 = EDGE_LOOP ( 'NONE', ( #66, #73 ) ) ;
#11 = ORIENTED_EDGE ( 'NONE', *, *, #25, .F. ) ;
#12 = CARTESIAN_POINT ( 'NONE',  ( 0.000000000000000000, 0.000000000000000000, 6.500000000000000000 ) ) ;
#13 = DIRECTION ( 'NONE',  ( 0.000000000000000000, 0.000000000000000000, 1.000000000000000000 ) ) ;
#14 = APPLICATION_PROTOCOL_DEFINITION ( 'international standard', 'config_control_design', 1994, #107 ) ;
#15 = DIRECTION ( 'NONE',  ( 0.000000000000000000, 0.000000000000000000, 1.000000000000000000 ) ) ;
#16 = FACE_OUTER_BOUND ( 'NONE', #209, .T. ) ;
#17 = CALENDAR_DATE ( 2023, 13, 2 ) ;
#18 = ORIENTED_EDGE ( 'NONE', *, *, #5, .F. ) ;
#19 = ORIENTED_EDGE ( 'NONE', *, *, #229, .F. ) ;
#20 = PERSON_AND_ORGANIZATION_ROLE ( 'creator' ) ;
#21 = DIRECTION ( 'NONE',  ( 0.000000000000000000, 0.000000000000000000, 1.000000000000000000 ) ) ;
#22 = EDGE_CURVE ( 'NONE', #206, #228, #24, .T. ) ;
#23 = APPROVAL_STATUS ( 'not_yet_approved' ) ;
#24 = CIRCLE ( 'NONE', #138, 7.000000000000000000 ) ;
#25 = EDGE_CURVE ( 'NONE', #166, #64, #247, .T. ) ;
#26 = ORIENTED_EDGE ( 'NONE', *, *, #31, .T. ) ;
#27 = CIRCLE ( 'NONE', #171, 4.099999999999999645 ) ;
#28 = DIRECTION ( 'NONE',  ( 1.000000000000000000, 0.000000000000000000, 0.000000000000000000 ) ) ;
#29 = APPLICATION_PROTOCOL_DEFINITION ( 'international standard', 'config_control_design', 1994, #80 ) ;
#30 = ORIENTED_EDGE ( 'NONE', *, *, #241, .T. ) ;
#31 = EDGE_CURVE ( 'NONE', #49, #183, #176, .T. ) ;
#32 = PERSON_AND_ORGANIZATION ( #240, #113 ) ;
#33 = AXIS2_PLACEMENT_3D ( 'NONE', #8, #160, #180 ) ;
#34 = CYLINDRICAL_SURFACE ( 'NONE', #162, 4.099999999999999645 ) ;
#35 = CYLINDRICAL_SURFACE ( 'NONE', #165, 7.000000000000000000 ) ;
#36 = CARTESIAN_POINT ( 'NONE',  ( 7.000000000000000000, 8.572527594031471218E-16, 6.500000000000000000 ) ) ;
#37 = VECTOR ( 'NONE', #222, 1000.000000000000000 ) ;
#38 = CALENDAR_DATE ( 2023, 13, 2 ) ;
#39 = LINE ( 'NONE', #1, #46 ) ;
#40 = PRODUCT_DEFINITION ( 'NEZNÁMÝ', '', #68, #190 ) ;
#41 = EDGE_LOOP ( 'NONE', ( #61, #77 ) ) ;
#42 = COORDINATED_UNIVERSAL_TIME_OFFSET ( 1, 0, .AHEAD. ) ;
#43 = CARTESIAN_POINT ( 'NONE',  ( 0.000000000000000000, 0.000000000000000000, 0.000000000000000000 ) ) ;
#44 = DIRECTION ( 'NONE',  ( 1.000000000000000000, 0.000000000000000000, 0.000000000000000000 ) ) ;
#45 = CLOSED_SHELL ( 'NONE', ( #210, #218, #116, #205, #194, #122, #92 ) ) ;
#46 = VECTOR ( 'NONE', #237, 1000.000000000000000 ) ;
#47 = ORIENTED_EDGE ( 'NONE', *, *, #5, .T. ) ;
#48 = ORIENTED_EDGE ( 'NONE', *, *, #168, .F. ) ;
#49 = VERTEX_POINT ( 'NONE', #167 ) ;
#50 = DIRECTION ( 'NONE',  ( 0.000000000000000000, 0.000000000000000000, 1.000000000000000000 ) ) ;
#51 = DATE_AND_TIME ( #17, #188 ) ;
#52 = PRODUCT_DEFINITION_SHAPE ( 'NONE', 'NONE',  #40 ) ;
#53 = AXIS2_PLACEMENT_3D ( 'NONE', #12, #50, #111 ) ;
#54 = AXIS2_PLACEMENT_3D ( 'NONE', #251, #125, #217 ) ;
#55 = SHAPE_DEFINITION_REPRESENTATION ( #52, #227 ) ;
#56 = APPROVAL ( #87, 'NEURÈENÝ' ) ;
#57 = CARTESIAN_POINT ( 'NONE',  ( 4.099999999999999645, 5.021051876504147385E-16, 799.9999999999998863 ) ) ;
#58 = DIRECTION ( 'NONE',  ( 0.000000000000000000, 0.000000000000000000, 1.000000000000000000 ) ) ;
#59 = DATE_TIME_ROLE ( 'creation_date' ) ;
#60 = LINE ( 'NONE', #57, #148 ) ;
#61 = ORIENTED_EDGE ( 'NONE', *, *, #22, .T. ) ;
#62 = VERTEX_POINT ( 'NONE', #89 ) ;
#63 = ORIENTED_EDGE ( 'NONE', *, *, #25, .T. ) ;
#64 = VERTEX_POINT ( 'NONE', #88 ) ;
#65 = CC_DESIGN_PERSON_AND_ORGANIZATION_ASSIGNMENT ( #76, #215, ( #85 ) ) ;
#66 = ORIENTED_EDGE ( 'NONE', *, *, #243, .T. ) ;
#67 = APPROVAL_DATE_TIME ( #51, #56 ) ;
#68 = PRODUCT_DEFINITION_FORMATION_WITH_SPECIFIED_SOURCE ( 'LIBOVOLNÝ', '', #115, .NOT_KNOWN. ) ;
#69 = CYLINDRICAL_SURFACE ( 'NONE', #81, 7.000000000000000000 ) ;
#70 = AXIS2_PLACEMENT_3D ( 'NONE', #43, #192, #246 ) ;
#71 = FACE_OUTER_BOUND ( 'NONE', #156, .T. ) ;
#72 = LOCAL_TIME ( 15, 15, 47.00000000000000000, #6 ) ;
#73 = ORIENTED_EDGE ( 'NONE', *, *, #168, .T. ) ;
#74 = DATE_AND_TIME ( #90, #3 ) ;
#75 = DATE_AND_TIME ( #178, #175 ) ;
#76 = PERSON_AND_ORGANIZATION ( #240, #113 ) ;
#77 = ORIENTED_EDGE ( 'NONE', *, *, #229, .T. ) ;
#78 = DIRECTION ( 'NONE',  ( 0.000000000000000000, 0.000000000000000000, 1.000000000000000000 ) ) ;
#79 = APPROVAL_PERSON_ORGANIZATION ( #2, #233, #119 ) ;
#80 = APPLICATION_CONTEXT ( 'configuration controlled 3d designs of mechanical parts and assemblies' ) ;
#81 = AXIS2_PLACEMENT_3D ( 'NONE', #140, #230, #170 ) ;
#82 = CIRCLE ( 'NONE', #134, 7.000000000000000000 ) ;
#83 = COORDINATED_UNIVERSAL_TIME_OFFSET ( 1, 0, .AHEAD. ) ;
#84 = VERTEX_POINT ( 'NONE', #187 ) ;
#85 = SECURITY_CLASSIFICATION ( '', '', #182 ) ;
#86 = DIRECTION ( 'NONE',  ( 1.000000000000000000, 0.000000000000000000, -0.000000000000000000 ) ) ;
#87 = APPROVAL_STATUS ( 'not_yet_approved' ) ;
#88 = CARTESIAN_POINT ( 'NONE',  ( 4.099999999999999645, 5.021051876504147385E-16, 6.500000000000000000 ) ) ;
#89 = CARTESIAN_POINT ( 'NONE',  ( 4.099999999999999645, 5.021051876504147385E-16, 799.9999999999998863 ) ) ;
#90 = CALENDAR_DATE ( 2023, 13, 2 ) ;
#91 = DIRECTION ( 'NONE',  ( -0.000000000000000000, -0.000000000000000000, -1.000000000000000000 ) ) ;
#92 = ADVANCED_FACE ( 'NONE', ( #108 ), #145, .T. ) ;
#93 = DIRECTION ( 'NONE',  ( 1.000000000000000000, 0.000000000000000000, 0.000000000000000000 ) ) ;
#94 = CC_DESIGN_SECURITY_CLASSIFICATION ( #85, ( #68 ) ) ;
#95 = DATE_AND_TIME ( #38, #121 ) ;
#96 = CIRCLE ( 'NONE', #53, 4.099999999999999645 ) ;
#97 = PRODUCT_RELATED_PRODUCT_CATEGORY ( 'detail', '', ( #115 ) ) ;
#98 = DIRECTION ( 'NONE',  ( -0.000000000000000000, -0.000000000000000000, -1.000000000000000000 ) ) ;
#99 = CC_DESIGN_PERSON_AND_ORGANIZATION_ASSIGNMENT ( #254, #149, ( #115 ) ) ;
#100 = APPROVAL_DATE_TIME ( #158, #127 ) ;
#101 = ORIENTED_EDGE ( 'NONE', *, *, #225, .F. ) ;
#102 = ORIENTED_EDGE ( 'NONE', *, *, #142, .F. ) ;
#103 = CYLINDRICAL_SURFACE ( 'NONE', #54, 4.099999999999999645 ) ;
#104 =( NAMED_UNIT ( * ) SI_UNIT ( $, .STERADIAN. ) SOLID_ANGLE_UNIT ( ) );
#105 = DIRECTION ( 'NONE',  ( 1.000000000000000000, 0.000000000000000000, -0.000000000000000000 ) ) ;
#106 = CC_DESIGN_PERSON_AND_ORGANIZATION_ASSIGNMENT ( #202, #179, ( #68 ) ) ;
#107 = APPLICATION_CONTEXT ( 'configuration controlled 3d designs of mechanical parts and assemblies' ) ;
#108 = FACE_OUTER_BOUND ( 'NONE', #10, .T. ) ;
#109 = CARTESIAN_POINT ( 'NONE',  ( 0.000000000000000000, 0.000000000000000000, 6.500000000000000000 ) ) ;
#110 = FACE_OUTER_BOUND ( 'NONE', #41, .T. ) ;
#111 = DIRECTION ( 'NONE',  ( 1.000000000000000000, 0.000000000000000000, 0.000000000000000000 ) ) ;
#112 = CARTESIAN_POINT ( 'NONE',  ( 0.000000000000000000, 0.000000000000000000, 6.500000000000000000 ) ) ;
#113 = ORGANIZATION ( 'NEURÈENÝ', 'NEURÈENÝ', '' ) ;
#114 = FACE_OUTER_BOUND ( 'NONE', #181, .T. ) ;
#115 = PRODUCT ( '4caf', '4caf', '', ( #118 ) ) ;
#116 = ADVANCED_FACE ( 'NONE', ( #71 ), #69, .T. ) ;
#117 = CARTESIAN_POINT ( 'NONE',  ( 0.000000000000000000, 0.000000000000000000, 799.9999999999998863 ) ) ;
#118 = MECHANICAL_CONTEXT ( 'NONE', #80, 'mechanical' ) ;
#119 = APPROVAL_ROLE ( '' ) ;
#120 = CALENDAR_DATE ( 2023, 13, 2 ) ;
#121 = LOCAL_TIME ( 15, 15, 47.00000000000000000, #220 ) ;
#122 = ADVANCED_FACE ( 'NONE', ( #143 ), #34, .T. ) ;
#123 = ORIENTED_EDGE ( 'NONE', *, *, #243, .F. ) ;
#124 = DIRECTION ( 'NONE',  ( -1.000000000000000000, 0.000000000000000000, 0.000000000000000000 ) ) ;
#125 = DIRECTION ( 'NONE',  ( -0.000000000000000000, -0.000000000000000000, -1.000000000000000000 ) ) ;
#126 = FACE_BOUND ( 'NONE', #161, .T. ) ;
#127 = APPROVAL ( #23, 'NEURÈENÝ' ) ;
#128 = CC_DESIGN_APPROVAL ( #127, ( #68 ) ) ;
#129 = DIRECTION ( 'NONE',  ( 1.000000000000000000, 0.000000000000000000, 0.000000000000000000 ) ) ;
#130 = CARTESIAN_POINT ( 'NONE',  ( 7.000000000000000000, 8.572527594031471218E-16, 0.000000000000000000 ) ) ;
#131 = APPROVAL_DATE_TIME ( #75, #233 ) ;
#132 = CC_DESIGN_DATE_AND_TIME_ASSIGNMENT ( #95, #59, ( #40 ) ) ;
#133 = CARTESIAN_POINT ( 'NONE',  ( 0.000000000000000000, 0.000000000000000000, 6.500000000000000000 ) ) ;
#134 = AXIS2_PLACEMENT_3D ( 'NONE', #133, #150, #197 ) ;
#135 = ORIENTED_EDGE ( 'NONE', *, *, #236, .T. ) ;
#136 = DIRECTION ( 'NONE',  ( -1.000000000000000000, 0.000000000000000000, 0.000000000000000000 ) ) ;
#137 = APPROVAL_PERSON_ORGANIZATION ( #196, #127, #177 ) ;
#138 = AXIS2_PLACEMENT_3D ( 'NONE', #4, #78, #28 ) ;
#139 = EDGE_LOOP ( 'NONE', ( #164, #123, #30, #63 ) ) ;
#140 = CARTESIAN_POINT ( 'NONE',  ( 0.000000000000000000, 0.000000000000000000, 6.500000000000000000 ) ) ;
#141 = CARTESIAN_POINT ( 'NONE',  ( -7.000000000000000000, 0.000000000000000000, 6.500000000000000000 ) ) ;
#142 = EDGE_CURVE ( 'NONE', #228, #183, #249, .T. ) ;
#143 = FACE_OUTER_BOUND ( 'NONE', #139, .T. ) ;
#144 = UNCERTAINTY_MEASURE_WITH_UNIT (LENGTH_MEASURE( 1.000000000000000082E-05 ), #244, 'distance_accuracy_value', 'NONE');
#145 = PLANE ( 'NONE',  #219 ) ;
#146 = CARTESIAN_POINT ( 'NONE',  ( 0.000000000000000000, 0.000000000000000000, 0.000000000000000000 ) ) ;
#147 = VECTOR ( 'NONE', #98, 1000.000000000000000 ) ;
#148 = VECTOR ( 'NONE', #153, 1000.000000000000000 ) ;
#149 = PERSON_AND_ORGANIZATION_ROLE ( 'design_owner' ) ;
#150 = DIRECTION ( 'NONE',  ( 0.000000000000000000, 0.000000000000000000, 1.000000000000000000 ) ) ;
#151 =( NAMED_UNIT ( * ) PLANE_ANGLE_UNIT ( ) SI_UNIT ( $, .RADIAN. ) );
#152 = ORIENTED_EDGE ( 'NONE', *, *, #31, .F. ) ;
#153 = DIRECTION ( 'NONE',  ( -0.000000000000000000, -0.000000000000000000, -1.000000000000000000 ) ) ;
#154 = APPROVAL_STATUS ( 'not_yet_approved' ) ;
#155 = CC_DESIGN_APPROVAL ( #56, ( #40 ) ) ;
#156 = EDGE_LOOP ( 'NONE', ( #102, #159, #47, #26 ) ) ;
#157 = EDGE_CURVE ( 'NONE', #183, #49, #252, .T. ) ;
#158 = DATE_AND_TIME ( #120, #72 ) ;
#159 = ORIENTED_EDGE ( 'NONE', *, *, #22, .F. ) ;
#160 = DIRECTION ( 'NONE',  ( 0.000000000000000000, 0.000000000000000000, 1.000000000000000000 ) ) ;
#161 = EDGE_LOOP ( 'NONE', ( #11, #101 ) ) ;
#162 = AXIS2_PLACEMENT_3D ( 'NONE', #211, #174, #136 ) ;
#163 = CC_DESIGN_PERSON_AND_ORGANIZATION_ASSIGNMENT ( #200, #224, ( #68 ) ) ;
#164 = ORIENTED_EDGE ( 'NONE', *, *, #236, .F. ) ;
#165 = AXIS2_PLACEMENT_3D ( 'NONE', #109, #91, #124 ) ;
#166 = VERTEX_POINT ( 'NONE', #195 ) ;
#167 = CARTESIAN_POINT ( 'NONE',  ( -7.000000000000000000, 0.000000000000000000, 0.000000000000000000 ) ) ;
#168 = EDGE_CURVE ( 'NONE', #62, #84, #27, .T. ) ;
#169 = APPROVAL_ROLE ( '' ) ;
#170 = DIRECTION ( 'NONE',  ( -1.000000000000000000, 0.000000000000000000, 0.000000000000000000 ) ) ;
#171 = AXIS2_PLACEMENT_3D ( 'NONE', #198, #21, #255 ) ;
#172 = FACE_OUTER_BOUND ( 'NONE', #226, .T. ) ;
#173 = DIRECTION ( 'NONE',  ( 1.000000000000000000, 0.000000000000000000, -0.000000000000000000 ) ) ;
#174 = DIRECTION ( 'NONE',  ( -0.000000000000000000, -0.000000000000000000, -1.000000000000000000 ) ) ;
#175 = LOCAL_TIME ( 15, 15, 47.00000000000000000, #42 ) ;
#176 = CIRCLE ( 'NONE', #70, 7.000000000000000000 ) ;
#177 = APPROVAL_ROLE ( '' ) ;
#178 = CALENDAR_DATE ( 2023, 13, 2 ) ;
#179 = PERSON_AND_ORGANIZATION_ROLE ( 'design_supplier' ) ;
#180 = DIRECTION ( 'NONE',  ( 1.000000000000000000, 0.000000000000000000, 0.000000000000000000 ) ) ;
#181 = EDGE_LOOP ( 'NONE', ( #48, #135, #9, #189 ) ) ;
#182 = SECURITY_CLASSIFICATION_LEVEL ( 'unclassified' ) ;
#183 = VERTEX_POINT ( 'NONE', #130 ) ;
#184 = ORIENTED_EDGE ( 'NONE', *, *, #142, .T. ) ;
#185 = CIRCLE ( 'NONE', #213, 4.099999999999999645 ) ;
#186 = PERSON_AND_ORGANIZATION ( #240, #113 ) ;
#187 = CARTESIAN_POINT ( 'NONE',  ( -4.099999999999999645, 0.000000000000000000, 799.9999999999998863 ) ) ;
#188 = LOCAL_TIME ( 15, 15, 47.00000000000000000, #232 ) ;
#189 = ORIENTED_EDGE ( 'NONE', *, *, #241, .F. ) ;
#190 = DESIGN_CONTEXT ( 'detailed design', #107, 'design' ) ;
#191 = CC_DESIGN_PERSON_AND_ORGANIZATION_ASSIGNMENT ( #186, #20, ( #40 ) ) ;
#192 = DIRECTION ( 'NONE',  ( 0.000000000000000000, 0.000000000000000000, 1.000000000000000000 ) ) ;
#193 =( GEOMETRIC_REPRESENTATION_CONTEXT ( 3 ) GLOBAL_UNCERTAINTY_ASSIGNED_CONTEXT ( ( #144 ) ) GLOBAL_UNIT_ASSIGNED_CONTEXT ( ( #244, #151, #104 ) ) REPRESENTATION_CONTEXT ( 'NONE', 'WORKASPACE' ) );
#194 = ADVANCED_FACE ( 'NONE', ( #172 ), #248, .F. ) ;
#195 = CARTESIAN_POINT ( 'NONE',  ( -4.099999999999999645, 0.000000000000000000, 6.500000000000000000 ) ) ;
#196 = PERSON_AND_ORGANIZATION ( #240, #113 ) ;
#197 = DIRECTION ( 'NONE',  ( 1.000000000000000000, 0.000000000000000000, 0.000000000000000000 ) ) ;
#198 = CARTESIAN_POINT ( 'NONE',  ( 0.000000000000000000, 0.000000000000000000, 799.9999999999998863 ) ) ;
#199 = DATE_TIME_ROLE ( 'classification_date' ) ;
#200 = PERSON_AND_ORGANIZATION ( #240, #113 ) ;
#201 = DIRECTION ( 'NONE',  ( 0.000000000000000000, 0.000000000000000000, 1.000000000000000000 ) ) ;
#202 = PERSON_AND_ORGANIZATION ( #240, #113 ) ;
#203 = AXIS2_PLACEMENT_3D ( 'NONE', #253, #250, #105 ) ;
#204 = CARTESIAN_POINT ( 'NONE',  ( -7.000000000000000000, 0.000000000000000000, 6.500000000000000000 ) ) ;
#205 = ADVANCED_FACE ( 'NONE', ( #126, #110 ), #234, .T. ) ;
#206 = VERTEX_POINT ( 'NONE', #141 ) ;
#207 = LINE ( 'NONE', #204, #37 ) ;
#208 = ORIENTED_EDGE ( 'NONE', *, *, #157, .F. ) ;
#209 = EDGE_LOOP ( 'NONE', ( #19, #184, #223, #18 ) ) ;
#210 = ADVANCED_FACE ( 'NONE', ( #114 ), #103, .T. ) ;
#211 = CARTESIAN_POINT ( 'NONE',  ( 0.000000000000000000, 0.000000000000000000, 799.9999999999998863 ) ) ;
#212 = AXIS2_PLACEMENT_3D ( 'NONE', #239, #58, #93 ) ;
#213 = AXIS2_PLACEMENT_3D ( 'NONE', #117, #201, #129 ) ;
#214 = CARTESIAN_POINT ( 'NONE',  ( 0.000000000000000000, 0.000000000000000000, 799.9999999999998863 ) ) ;
#215 = PERSON_AND_ORGANIZATION_ROLE ( 'classification_officer' ) ;
#216 = MANIFOLD_SOLID_BREP ( 'Pøidat vysunutím3', #45 ) ;
#217 = DIRECTION ( 'NONE',  ( -1.000000000000000000, 0.000000000000000000, 0.000000000000000000 ) ) ;
#218 = ADVANCED_FACE ( 'NONE', ( #16 ), #35, .T. ) ;
#219 = AXIS2_PLACEMENT_3D ( 'NONE', #214, #15, #173 ) ;
#220 = COORDINATED_UNIVERSAL_TIME_OFFSET ( 1, 0, .AHEAD. ) ;
#221 = CARTESIAN_POINT ( 'NONE',  ( 7.000000000000000000, 8.572527594031471218E-16, 6.500000000000000000 ) ) ;
#222 = DIRECTION ( 'NONE',  ( -0.000000000000000000, -0.000000000000000000, -1.000000000000000000 ) ) ;
#223 = ORIENTED_EDGE ( 'NONE', *, *, #157, .T. ) ;
#224 = PERSON_AND_ORGANIZATION_ROLE ( 'creator' ) ;
#225 = EDGE_CURVE ( 'NONE', #64, #166, #96, .T. ) ;
#226 = EDGE_LOOP ( 'NONE', ( #152, #208 ) ) ;
#227 = ADVANCED_BREP_SHAPE_REPRESENTATION ( '4caf', ( #216, #231 ), #193 ) ;
#228 = VERTEX_POINT ( 'NONE', #221 ) ;
#229 = EDGE_CURVE ( 'NONE', #228, #206, #82, .T. ) ;
#230 = DIRECTION ( 'NONE',  ( -0.000000000000000000, -0.000000000000000000, -1.000000000000000000 ) ) ;
#231 = AXIS2_PLACEMENT_3D ( 'NONE', #146, #242, #44 ) ;
#232 = COORDINATED_UNIVERSAL_TIME_OFFSET ( 1, 0, .AHEAD. ) ;
#233 = APPROVAL ( #154, 'NEURÈENÝ' ) ;
#234 = PLANE ( 'NONE',  #238 ) ;
#235 = CC_DESIGN_APPROVAL ( #233, ( #85 ) ) ;
#236 = EDGE_CURVE ( 'NONE', #62, #64, #60, .T. ) ;
#237 = DIRECTION ( 'NONE',  ( -0.000000000000000000, -0.000000000000000000, -1.000000000000000000 ) ) ;
#238 = AXIS2_PLACEMENT_3D ( 'NONE', #112, #13, #86 ) ;
#239 = CARTESIAN_POINT ( 'NONE',  ( 0.000000000000000000, 0.000000000000000000, 0.000000000000000000 ) ) ;
#240 = PERSON ( 'NEURÈENÝ', 'NEURÈENÝ', 'NEURÈENÝ', ('NEURÈENÝ'), ('NEURÈENÝ'), ('NEURÈENÝ') ) ;
#241 = EDGE_CURVE ( 'NONE', #84, #166, #39, .T. ) ;
#242 = DIRECTION ( 'NONE',  ( 0.000000000000000000, 0.000000000000000000, 1.000000000000000000 ) ) ;
#243 = EDGE_CURVE ( 'NONE', #84, #62, #185, .T. ) ;
#244 =( LENGTH_UNIT ( ) NAMED_UNIT ( * ) SI_UNIT ( .MILLI., .METRE. ) );
#245 = CC_DESIGN_DATE_AND_TIME_ASSIGNMENT ( #74, #199, ( #85 ) ) ;
#246 = DIRECTION ( 'NONE',  ( 1.000000000000000000, 0.000000000000000000, 0.000000000000000000 ) ) ;
#247 = CIRCLE ( 'NONE', #33, 4.099999999999999645 ) ;
#248 = PLANE ( 'NONE',  #203 ) ;
#249 = LINE ( 'NONE', #36, #147 ) ;
#250 = DIRECTION ( 'NONE',  ( 0.000000000000000000, 0.000000000000000000, 1.000000000000000000 ) ) ;
#251 = CARTESIAN_POINT ( 'NONE',  ( 0.000000000000000000, 0.000000000000000000, 799.9999999999998863 ) ) ;
#252 = CIRCLE ( 'NONE', #212, 7.000000000000000000 ) ;
#253 = CARTESIAN_POINT ( 'NONE',  ( 0.000000000000000000, 0.000000000000000000, 0.000000000000000000 ) ) ;
#254 = PERSON_AND_ORGANIZATION ( #240, #113 ) ;
#255 = DIRECTION ( 'NONE',  ( 1.000000000000000000, 0.000000000000000000, 0.000000000000000000 ) ) ;
ENDSEC;
END-ISO-10303-21;
