ISO-10303-21;
HEADER;
FILE_DESCRIPTION (( 'STEP AP203' ),
    '1' );
FILE_NAME ('2aca.STEP',
    '2023-02-13T15:43:52',
    ( '' ),
    ( '' ),
    'SwSTEP 2.0',
    'SolidWorks 2019',
    '' );
FILE_SCHEMA (( 'CONFIG_CONTROL_DESIGN' ));
ENDSEC;

DATA;
#1 = LOCAL_TIME ( 16, 43, 52.00000000000000000, #147 ) ;
#2 = CARTESIAN_POINT ( 'NONE',  ( -6.000000000000000888, 0.000000000000000000, 5.000000000000000000 ) ) ;
#3 = DIRECTION ( 'NONE',  ( 1.000000000000000000, 0.000000000000000000, 0.000000000000000000 ) ) ;
#4 = EDGE_CURVE ( 'NONE', #228, #49, #210, .T. ) ;
#5 = PERSON_AND_ORGANIZATION_ROLE ( 'design_owner' ) ;
#6 = ORIENTED_EDGE ( 'NONE', *, *, #36, .F. ) ;
#7 = ORIENTED_EDGE ( 'NONE', *, *, #36, .T. ) ;
#8 = CLOSED_SHELL ( 'NONE', ( #80, #178, #114, #156, #138, #88, #236 ) ) ;
#9 = APPROVAL_STATUS ( 'not_yet_approved' ) ;
#10 = VERTEX_POINT ( 'NONE', #109 ) ;
#11 = DESIGN_CONTEXT ( 'detailed design', #237, 'design' ) ;
#12 = ORIENTED_EDGE ( 'NONE', *, *, #196, .T. ) ;
#13 = DATE_AND_TIME ( #195, #168 ) ;
#14 = VECTOR ( 'NONE', #218, 1000.000000000000000 ) ;
#15 = CARTESIAN_POINT ( 'NONE',  ( 0.000000000000000000, 0.000000000000000000, 800.0000000000000000 ) ) ;
#16 = EDGE_CURVE ( 'NONE', #235, #130, #220, .T. ) ;
#17 = FACE_OUTER_BOUND ( 'NONE', #234, .T. ) ;
#18 = APPROVAL_STATUS ( 'not_yet_approved' ) ;
#19 = DIRECTION ( 'NONE',  ( -1.000000000000000000, 0.000000000000000000, 0.000000000000000000 ) ) ;
#20 = APPROVAL_PERSON_ORGANIZATION ( #119, #74, #41 ) ;
#21 = CARTESIAN_POINT ( 'NONE',  ( 0.000000000000000000, 0.000000000000000000, 5.000000000000000000 ) ) ;
#22 = PLANE ( 'NONE',  #146 ) ;
#23 = PRODUCT_DEFINITION_FORMATION_WITH_SPECIFIED_SOURCE ( 'LIBOVOLNÝ', '', #85, .NOT_KNOWN. ) ;
#24 =( NAMED_UNIT ( * ) PLANE_ANGLE_UNIT ( ) SI_UNIT ( $, .RADIAN. ) );
#25 =( NAMED_UNIT ( * ) SI_UNIT ( $, .STERADIAN. ) SOLID_ANGLE_UNIT ( ) );
#26 = EDGE_CURVE ( 'NONE', #10, #148, #133, .T. ) ;
#27 = ORIENTED_EDGE ( 'NONE', *, *, #89, .T. ) ;
#28 = APPLICATION_PROTOCOL_DEFINITION ( 'international standard', 'config_control_design', 1994, #82 ) ;
#29 = APPROVAL_ROLE ( '' ) ;
#30 = CIRCLE ( 'NONE', #93, 3.000000000000000444 ) ;
#31 = ORIENTED_EDGE ( 'NONE', *, *, #26, .T. ) ;
#32 = DIRECTION ( 'NONE',  ( 1.000000000000000000, 0.000000000000000000, 0.000000000000000000 ) ) ;
#33 = CYLINDRICAL_SURFACE ( 'NONE', #161, 3.000000000000000444 ) ;
#34 = PERSON_AND_ORGANIZATION ( #70, #209 ) ;
#35 = LOCAL_TIME ( 16, 43, 52.00000000000000000, #233 ) ;
#36 = EDGE_CURVE ( 'NONE', #49, #228, #117, .T. ) ;
#37 = DIRECTION ( 'NONE',  ( -0.000000000000000000, -0.000000000000000000, -1.000000000000000000 ) ) ;
#38 = APPROVAL_DATE_TIME ( #97, #74 ) ;
#39 = DIRECTION ( 'NONE',  ( 0.000000000000000000, 0.000000000000000000, 1.000000000000000000 ) ) ;
#40 = FACE_OUTER_BOUND ( 'NONE', #44, .T. ) ;
#41 = APPROVAL_ROLE ( '' ) ;
#42 = CARTESIAN_POINT ( 'NONE',  ( 6.000000000000000888, 7.347880794884120722E-16, 5.000000000000000000 ) ) ;
#43 = FACE_OUTER_BOUND ( 'NONE', #81, .T. ) ;
#44 = EDGE_LOOP ( 'NONE', ( #68, #86, #47, #65 ) ) ;
#45 = DIRECTION ( 'NONE',  ( 1.000000000000000000, 0.000000000000000000, 0.000000000000000000 ) ) ;
#46 =( GEOMETRIC_REPRESENTATION_CONTEXT ( 3 ) GLOBAL_UNCERTAINTY_ASSIGNED_CONTEXT ( ( #108 ) ) GLOBAL_UNIT_ASSIGNED_CONTEXT ( ( #229, #24, #25 ) ) REPRESENTATION_CONTEXT ( 'NONE', 'WORKASPACE' ) );
#47 = ORIENTED_EDGE ( 'NONE', *, *, #201, .T. ) ;
#48 = CC_DESIGN_PERSON_AND_ORGANIZATION_ASSIGNMENT ( #34, #239, ( #23 ) ) ;
#49 = VERTEX_POINT ( 'NONE', #221 ) ;
#50 = MECHANICAL_CONTEXT ( 'NONE', #82, 'mechanical' ) ;
#51 = EDGE_LOOP ( 'NONE', ( #6, #194, #248, #67 ) ) ;
#52 = PERSON_AND_ORGANIZATION ( #70, #209 ) ;
#53 = PRODUCT_DEFINITION_SHAPE ( 'NONE', 'NONE',  #160 ) ;
#54 = CARTESIAN_POINT ( 'NONE',  ( -3.000000000000000444, 0.000000000000000000, 800.0000000000000000 ) ) ;
#55 = APPROVAL_DATE_TIME ( #13, #143 ) ;
#56 = FACE_OUTER_BOUND ( 'NONE', #165, .T. ) ;
#57 = CARTESIAN_POINT ( 'NONE',  ( 0.000000000000000000, 0.000000000000000000, 0.000000000000000000 ) ) ;
#58 = CARTESIAN_POINT ( 'NONE',  ( 0.000000000000000000, 0.000000000000000000, 5.000000000000000000 ) ) ;
#59 = CARTESIAN_POINT ( 'NONE',  ( 3.000000000000000444, 3.673940397442060361E-16, 5.000000000000000000 ) ) ;
#60 = CARTESIAN_POINT ( 'NONE',  ( 0.000000000000000000, 0.000000000000000000, 0.000000000000000000 ) ) ;
#61 = CIRCLE ( 'NONE', #197, 3.000000000000000444 ) ;
#62 = ORIENTED_EDGE ( 'NONE', *, *, #89, .F. ) ;
#63 = PERSON_AND_ORGANIZATION_ROLE ( 'creator' ) ;
#64 = ORIENTED_EDGE ( 'NONE', *, *, #163, .F. ) ;
#65 = ORIENTED_EDGE ( 'NONE', *, *, #16, .T. ) ;
#66 = APPLICATION_PROTOCOL_DEFINITION ( 'international standard', 'config_control_design', 1994, #237 ) ;
#67 = ORIENTED_EDGE ( 'NONE', *, *, #201, .F. ) ;
#68 = ORIENTED_EDGE ( 'NONE', *, *, #155, .F. ) ;
#69 = PERSON_AND_ORGANIZATION ( #70, #209 ) ;
#70 = PERSON ( 'NEURÈENÝ', 'NEURÈENÝ', 'NEURÈENÝ', ('NEURÈENÝ'), ('NEURÈENÝ'), ('NEURÈENÝ') ) ;
#71 = CC_DESIGN_APPROVAL ( #74, ( #124 ) ) ;
#72 = DIRECTION ( 'NONE',  ( 0.000000000000000000, 0.000000000000000000, 1.000000000000000000 ) ) ;
#73 = CALENDAR_DATE ( 2023, 13, 2 ) ;
#74 = APPROVAL ( #18, 'NEURÈENÝ' ) ;
#75 = DIRECTION ( 'NONE',  ( 0.000000000000000000, 0.000000000000000000, 1.000000000000000000 ) ) ;
#76 = CIRCLE ( 'NONE', #105, 6.000000000000000888 ) ;
#77 = DIRECTION ( 'NONE',  ( 0.000000000000000000, 0.000000000000000000, 1.000000000000000000 ) ) ;
#78 = PLANE ( 'NONE',  #99 ) ;
#79 = APPROVAL_DATE_TIME ( #208, #111 ) ;
#80 = ADVANCED_FACE ( 'NONE', ( #56 ), #91, .T. ) ;
#81 = EDGE_LOOP ( 'NONE', ( #212, #7 ) ) ;
#82 = APPLICATION_CONTEXT ( 'configuration controlled 3d designs of mechanical parts and assemblies' ) ;
#83 = CC_DESIGN_APPROVAL ( #143, ( #23 ) ) ;
#84 = EDGE_CURVE ( 'NONE', #232, #246, #199, .T. ) ;
#85 = PRODUCT ( '2aca', '2aca', '', ( #50 ) ) ;
#86 = ORIENTED_EDGE ( 'NONE', *, *, #4, .F. ) ;
#87 = PERSON_AND_ORGANIZATION ( #70, #209 ) ;
#88 = ADVANCED_FACE ( 'NONE', ( #17 ), #33, .T. ) ;
#89 = EDGE_CURVE ( 'NONE', #246, #148, #152, .T. ) ;
#90 = AXIS2_PLACEMENT_3D ( 'NONE', #244, #101, #3 ) ;
#91 = CYLINDRICAL_SURFACE ( 'NONE', #164, 3.000000000000000444 ) ;
#92 = CC_DESIGN_PERSON_AND_ORGANIZATION_ASSIGNMENT ( #69, #175, ( #23 ) ) ;
#93 = AXIS2_PLACEMENT_3D ( 'NONE', #254, #77, #140 ) ;
#94 = VECTOR ( 'NONE', #113, 1000.000000000000000 ) ;
#95 = DIRECTION ( 'NONE',  ( -0.000000000000000000, -0.000000000000000000, -1.000000000000000000 ) ) ;
#96 = FACE_OUTER_BOUND ( 'NONE', #167, .T. ) ;
#97 = DATE_AND_TIME ( #144, #169 ) ;
#98 = DIRECTION ( 'NONE',  ( 1.000000000000000000, 0.000000000000000000, 0.000000000000000000 ) ) ;
#99 = AXIS2_PLACEMENT_3D ( 'NONE', #60, #39, #255 ) ;
#100 = CARTESIAN_POINT ( 'NONE',  ( 3.000000000000000444, 3.673940397442060361E-16, 800.0000000000000000 ) ) ;
#101 = DIRECTION ( 'NONE',  ( 0.000000000000000000, 0.000000000000000000, 1.000000000000000000 ) ) ;
#102 = PRODUCT_RELATED_PRODUCT_CATEGORY ( 'detail', '', ( #85 ) ) ;
#103 = EDGE_CURVE ( 'NONE', #130, #235, #76, .T. ) ;
#104 = DIRECTION ( 'NONE',  ( 0.000000000000000000, 0.000000000000000000, 1.000000000000000000 ) ) ;
#105 = AXIS2_PLACEMENT_3D ( 'NONE', #57, #139, #238 ) ;
#106 = ORIENTED_EDGE ( 'NONE', *, *, #84, .T. ) ;
#107 = PERSON_AND_ORGANIZATION ( #70, #209 ) ;
#108 = UNCERTAINTY_MEASURE_WITH_UNIT (LENGTH_MEASURE( 1.000000000000000082E-05 ), #229, 'distance_accuracy_value', 'NONE');
#109 = CARTESIAN_POINT ( 'NONE',  ( -3.000000000000000444, 0.000000000000000000, 800.0000000000000000 ) ) ;
#110 = DIRECTION ( 'NONE',  ( -1.000000000000000000, 0.000000000000000000, 0.000000000000000000 ) ) ;
#111 = APPROVAL ( #9, 'NEURÈENÝ' ) ;
#112 = APPROVAL_PERSON_ORGANIZATION ( #127, #111, #29 ) ;
#113 = DIRECTION ( 'NONE',  ( -0.000000000000000000, -0.000000000000000000, -1.000000000000000000 ) ) ;
#114 = ADVANCED_FACE ( 'NONE', ( #40 ), #203, .T. ) ;
#115 = CARTESIAN_POINT ( 'NONE',  ( 0.000000000000000000, 0.000000000000000000, 5.000000000000000000 ) ) ;
#116 = DIRECTION ( 'NONE',  ( -0.000000000000000000, -0.000000000000000000, -1.000000000000000000 ) ) ;
#117 = CIRCLE ( 'NONE', #225, 6.000000000000000888 ) ;
#118 = LINE ( 'NONE', #42, #251 ) ;
#119 = PERSON_AND_ORGANIZATION ( #70, #209 ) ;
#120 = PLANE ( 'NONE',  #131 ) ;
#121 = CARTESIAN_POINT ( 'NONE',  ( 6.000000000000000888, 7.347880794884120722E-16, 0.000000000000000000 ) ) ;
#122 = CC_DESIGN_PERSON_AND_ORGANIZATION_ASSIGNMENT ( #52, #172, ( #124 ) ) ;
#123 = DATE_AND_TIME ( #73, #226 ) ;
#124 = SECURITY_CLASSIFICATION ( '', '', #135 ) ;
#125 = COORDINATED_UNIVERSAL_TIME_OFFSET ( 1, 0, .AHEAD. ) ;
#126 = ORIENTED_EDGE ( 'NONE', *, *, #103, .F. ) ;
#127 = PERSON_AND_ORGANIZATION ( #70, #209 ) ;
#128 = ORIENTED_EDGE ( 'NONE', *, *, #184, .F. ) ;
#129 = CARTESIAN_POINT ( 'NONE',  ( 0.000000000000000000, 0.000000000000000000, 0.000000000000000000 ) ) ;
#130 = VERTEX_POINT ( 'NONE', #121 ) ;
#131 = AXIS2_PLACEMENT_3D ( 'NONE', #159, #227, #242 ) ;
#132 = CARTESIAN_POINT ( 'NONE',  ( 0.000000000000000000, 0.000000000000000000, 5.000000000000000000 ) ) ;
#133 = LINE ( 'NONE', #54, #94 ) ;
#134 = AXIS2_PLACEMENT_3D ( 'NONE', #129, #104, #45 ) ;
#135 = SECURITY_CLASSIFICATION_LEVEL ( 'unclassified' ) ;
#136 = CARTESIAN_POINT ( 'NONE',  ( 0.000000000000000000, 0.000000000000000000, 0.000000000000000000 ) ) ;
#137 = ADVANCED_BREP_SHAPE_REPRESENTATION ( '2aca', ( #231, #134 ), #46 ) ;
#138 = ADVANCED_FACE ( 'NONE', ( #204 ), #78, .F. ) ;
#139 = DIRECTION ( 'NONE',  ( 0.000000000000000000, 0.000000000000000000, 1.000000000000000000 ) ) ;
#140 = DIRECTION ( 'NONE',  ( 1.000000000000000000, 0.000000000000000000, 0.000000000000000000 ) ) ;
#141 = COORDINATED_UNIVERSAL_TIME_OFFSET ( 1, 0, .AHEAD. ) ;
#142 = DIRECTION ( 'NONE',  ( -1.000000000000000000, 0.000000000000000000, 0.000000000000000000 ) ) ;
#143 = APPROVAL ( #207, 'NEURÈENÝ' ) ;
#144 = CALENDAR_DATE ( 2023, 13, 2 ) ;
#145 = CARTESIAN_POINT ( 'NONE',  ( -3.000000000000000444, 0.000000000000000000, 5.000000000000000000 ) ) ;
#146 = AXIS2_PLACEMENT_3D ( 'NONE', #21, #224, #177 ) ;
#147 = COORDINATED_UNIVERSAL_TIME_OFFSET ( 1, 0, .AHEAD. ) ;
#148 = VERTEX_POINT ( 'NONE', #145 ) ;
#149 = ORIENTED_EDGE ( 'NONE', *, *, #84, .F. ) ;
#150 = CALENDAR_DATE ( 2023, 13, 2 ) ;
#151 = CC_DESIGN_APPROVAL ( #111, ( #160 ) ) ;
#152 = CIRCLE ( 'NONE', #182, 3.000000000000000444 ) ;
#153 = CC_DESIGN_SECURITY_CLASSIFICATION ( #124, ( #23 ) ) ;
#154 = ORIENTED_EDGE ( 'NONE', *, *, #163, .T. ) ;
#155 = EDGE_CURVE ( 'NONE', #49, #130, #118, .T. ) ;
#156 = ADVANCED_FACE ( 'NONE', ( #181, #43 ), #22, .T. ) ;
#157 = DATE_TIME_ROLE ( 'classification_date' ) ;
#158 = DIRECTION ( 'NONE',  ( 1.000000000000000000, 0.000000000000000000, 0.000000000000000000 ) ) ;
#159 = CARTESIAN_POINT ( 'NONE',  ( 0.000000000000000000, 0.000000000000000000, 800.0000000000000000 ) ) ;
#160 = PRODUCT_DEFINITION ( 'NEZNÁMÝ', '', #23, #11 ) ;
#161 = AXIS2_PLACEMENT_3D ( 'NONE', #15, #176, #110 ) ;
#162 = DIRECTION ( 'NONE',  ( -0.000000000000000000, -0.000000000000000000, -1.000000000000000000 ) ) ;
#163 = EDGE_CURVE ( 'NONE', #10, #232, #30, .T. ) ;
#164 = AXIS2_PLACEMENT_3D ( 'NONE', #250, #37, #198 ) ;
#165 = EDGE_LOOP ( 'NONE', ( #190, #106, #27, #214 ) ) ;
#166 = CC_DESIGN_PERSON_AND_ORGANIZATION_ASSIGNMENT ( #107, #63, ( #160 ) ) ;
#167 = EDGE_LOOP ( 'NONE', ( #154, #12 ) ) ;
#168 = LOCAL_TIME ( 16, 43, 52.00000000000000000, #125 ) ;
#169 = LOCAL_TIME ( 16, 43, 52.00000000000000000, #141 ) ;
#170 = APPROVAL_ROLE ( '' ) ;
#171 = ORIENTED_EDGE ( 'NONE', *, *, #184, .T. ) ;
#172 = PERSON_AND_ORGANIZATION_ROLE ( 'classification_officer' ) ;
#173 = CC_DESIGN_DATE_AND_TIME_ASSIGNMENT ( #123, #157, ( #124 ) ) ;
#174 = DIRECTION ( 'NONE',  ( 1.000000000000000000, 0.000000000000000000, 0.000000000000000000 ) ) ;
#175 = PERSON_AND_ORGANIZATION_ROLE ( 'creator' ) ;
#176 = DIRECTION ( 'NONE',  ( -0.000000000000000000, -0.000000000000000000, -1.000000000000000000 ) ) ;
#177 = DIRECTION ( 'NONE',  ( 1.000000000000000000, 0.000000000000000000, -0.000000000000000000 ) ) ;
#178 = ADVANCED_FACE ( 'NONE', ( #241 ), #200, .T. ) ;
#179 = CARTESIAN_POINT ( 'NONE',  ( 0.000000000000000000, 0.000000000000000000, 5.000000000000000000 ) ) ;
#180 = SHAPE_DEFINITION_REPRESENTATION ( #53, #137 ) ;
#181 = FACE_BOUND ( 'NONE', #213, .T. ) ;
#182 = AXIS2_PLACEMENT_3D ( 'NONE', #253, #72, #158 ) ;
#183 = DIRECTION ( 'NONE',  ( -0.000000000000000000, -0.000000000000000000, -1.000000000000000000 ) ) ;
#184 = EDGE_CURVE ( 'NONE', #148, #246, #61, .T. ) ;
#185 = PERSON_AND_ORGANIZATION ( #70, #209 ) ;
#186 = VECTOR ( 'NONE', #162, 1000.000000000000000 ) ;
#187 = CC_DESIGN_DATE_AND_TIME_ASSIGNMENT ( #189, #191, ( #160 ) ) ;
#188 = EDGE_LOOP ( 'NONE', ( #192, #126 ) ) ;
#189 = DATE_AND_TIME ( #150, #35 ) ;
#190 = ORIENTED_EDGE ( 'NONE', *, *, #196, .F. ) ;
#191 = DATE_TIME_ROLE ( 'creation_date' ) ;
#192 = ORIENTED_EDGE ( 'NONE', *, *, #16, .F. ) ;
#193 = COORDINATED_UNIVERSAL_TIME_OFFSET ( 1, 0, .AHEAD. ) ;
#194 = ORIENTED_EDGE ( 'NONE', *, *, #155, .T. ) ;
#195 = CALENDAR_DATE ( 2023, 13, 2 ) ;
#196 = EDGE_CURVE ( 'NONE', #232, #10, #215, .T. ) ;
#197 = AXIS2_PLACEMENT_3D ( 'NONE', #58, #75, #98 ) ;
#198 = DIRECTION ( 'NONE',  ( -1.000000000000000000, 0.000000000000000000, 0.000000000000000000 ) ) ;
#199 = LINE ( 'NONE', #249, #14 ) ;
#200 = CYLINDRICAL_SURFACE ( 'NONE', #245, 6.000000000000000888 ) ;
#201 = EDGE_CURVE ( 'NONE', #228, #235, #202, .T. ) ;
#202 = LINE ( 'NONE', #223, #186 ) ;
#203 = CYLINDRICAL_SURFACE ( 'NONE', #247, 6.000000000000000888 ) ;
#204 = FACE_OUTER_BOUND ( 'NONE', #188, .T. ) ;
#205 = APPROVAL_PERSON_ORGANIZATION ( #87, #143, #170 ) ;
#206 = CARTESIAN_POINT ( 'NONE',  ( 0.000000000000000000, 0.000000000000000000, 5.000000000000000000 ) ) ;
#207 = APPROVAL_STATUS ( 'not_yet_approved' ) ;
#208 = DATE_AND_TIME ( #230, #1 ) ;
#209 = ORGANIZATION ( 'NEURÈENÝ', 'NEURÈENÝ', '' ) ;
#210 = CIRCLE ( 'NONE', #252, 6.000000000000000888 ) ;
#211 = CC_DESIGN_PERSON_AND_ORGANIZATION_ASSIGNMENT ( #185, #5, ( #85 ) ) ;
#212 = ORIENTED_EDGE ( 'NONE', *, *, #4, .T. ) ;
#213 = EDGE_LOOP ( 'NONE', ( #128, #62 ) ) ;
#214 = ORIENTED_EDGE ( 'NONE', *, *, #26, .F. ) ;
#215 = CIRCLE ( 'NONE', #90, 3.000000000000000444 ) ;
#216 = AXIS2_PLACEMENT_3D ( 'NONE', #136, #222, #219 ) ;
#217 = DIRECTION ( 'NONE',  ( 0.000000000000000000, 0.000000000000000000, 1.000000000000000000 ) ) ;
#218 = DIRECTION ( 'NONE',  ( -0.000000000000000000, -0.000000000000000000, -1.000000000000000000 ) ) ;
#219 = DIRECTION ( 'NONE',  ( 1.000000000000000000, 0.000000000000000000, 0.000000000000000000 ) ) ;
#220 = CIRCLE ( 'NONE', #216, 6.000000000000000888 ) ;
#221 = CARTESIAN_POINT ( 'NONE',  ( 6.000000000000000888, 7.347880794884120722E-16, 5.000000000000000000 ) ) ;
#222 = DIRECTION ( 'NONE',  ( 0.000000000000000000, 0.000000000000000000, 1.000000000000000000 ) ) ;
#223 = CARTESIAN_POINT ( 'NONE',  ( -6.000000000000000888, 0.000000000000000000, 5.000000000000000000 ) ) ;
#224 = DIRECTION ( 'NONE',  ( 0.000000000000000000, 0.000000000000000000, 1.000000000000000000 ) ) ;
#225 = AXIS2_PLACEMENT_3D ( 'NONE', #115, #240, #174 ) ;
#226 = LOCAL_TIME ( 16, 43, 52.00000000000000000, #193 ) ;
#227 = DIRECTION ( 'NONE',  ( 0.000000000000000000, 0.000000000000000000, 1.000000000000000000 ) ) ;
#228 = VERTEX_POINT ( 'NONE', #2 ) ;
#229 =( LENGTH_UNIT ( ) NAMED_UNIT ( * ) SI_UNIT ( .MILLI., .METRE. ) );
#230 = CALENDAR_DATE ( 2023, 13, 2 ) ;
#231 = MANIFOLD_SOLID_BREP ( 'Pøidat vysunutím3', #8 ) ;
#232 = VERTEX_POINT ( 'NONE', #100 ) ;
#233 = COORDINATED_UNIVERSAL_TIME_OFFSET ( 1, 0, .AHEAD. ) ;
#234 = EDGE_LOOP ( 'NONE', ( #149, #64, #31, #171 ) ) ;
#235 = VERTEX_POINT ( 'NONE', #243 ) ;
#236 = ADVANCED_FACE ( 'NONE', ( #96 ), #120, .T. ) ;
#237 = APPLICATION_CONTEXT ( 'configuration controlled 3d designs of mechanical parts and assemblies' ) ;
#238 = DIRECTION ( 'NONE',  ( 1.000000000000000000, 0.000000000000000000, 0.000000000000000000 ) ) ;
#239 = PERSON_AND_ORGANIZATION_ROLE ( 'design_supplier' ) ;
#240 = DIRECTION ( 'NONE',  ( 0.000000000000000000, 0.000000000000000000, 1.000000000000000000 ) ) ;
#241 = FACE_OUTER_BOUND ( 'NONE', #51, .T. ) ;
#242 = DIRECTION ( 'NONE',  ( 1.000000000000000000, 0.000000000000000000, -0.000000000000000000 ) ) ;
#243 = CARTESIAN_POINT ( 'NONE',  ( -6.000000000000000888, 0.000000000000000000, 0.000000000000000000 ) ) ;
#244 = CARTESIAN_POINT ( 'NONE',  ( 0.000000000000000000, 0.000000000000000000, 800.0000000000000000 ) ) ;
#245 = AXIS2_PLACEMENT_3D ( 'NONE', #206, #183, #19 ) ;
#246 = VERTEX_POINT ( 'NONE', #59 ) ;
#247 = AXIS2_PLACEMENT_3D ( 'NONE', #179, #95, #142 ) ;
#248 = ORIENTED_EDGE ( 'NONE', *, *, #103, .T. ) ;
#249 = CARTESIAN_POINT ( 'NONE',  ( 3.000000000000000444, 3.673940397442060361E-16, 800.0000000000000000 ) ) ;
#250 = CARTESIAN_POINT ( 'NONE',  ( 0.000000000000000000, 0.000000000000000000, 800.0000000000000000 ) ) ;
#251 = VECTOR ( 'NONE', #116, 1000.000000000000000 ) ;
#252 = AXIS2_PLACEMENT_3D ( 'NONE', #132, #217, #32 ) ;
#253 = CARTESIAN_POINT ( 'NONE',  ( 0.000000000000000000, 0.000000000000000000, 5.000000000000000000 ) ) ;
#254 = CARTESIAN_POINT ( 'NONE',  ( 0.000000000000000000, 0.000000000000000000, 800.0000000000000000 ) ) ;
#255 = DIRECTION ( 'NONE',  ( 1.000000000000000000, 0.000000000000000000, -0.000000000000000000 ) ) ;
ENDSEC;
END-ISO-10303-21;
