ISO-10303-21;
HEADER;
FILE_DESCRIPTION (( 'STEP AP203' ),
    '1' );
FILE_NAME ('7e64.STEP',
    '2023-02-13T09:42:20',
    ( '' ),
    ( '' ),
    'SwSTEP 2.0',
    'SolidWorks 2019',
    '' );
FILE_SCHEMA (( 'CONFIG_CONTROL_DESIGN' ));
ENDSEC;

DATA;
#1 = AXIS2_PLACEMENT_3D ( 'NONE', #83, #18, #145 ) ;
#2 = ORIENTED_EDGE ( 'NONE', *, *, #22, .F. ) ;
#3 = COORDINATED_UNIVERSAL_TIME_OFFSET ( 1, 0, .AHEAD. ) ;
#4 = ADVANCED_FACE ( 'NONE', ( #34 ), #77, .T. ) ;
#5 = DIRECTION ( 'NONE',  ( 0.000000000000000000, 0.000000000000000000, 1.000000000000000000 ) ) ;
#6 = FACE_OUTER_BOUND ( 'NONE', #147, .T. ) ;
#7 = PERSON_AND_ORGANIZATION ( #253, #155 ) ;
#8 = DATE_TIME_ROLE ( 'creation_date' ) ;
#9 = COORDINATED_UNIVERSAL_TIME_OFFSET ( 1, 0, .AHEAD. ) ;
#10 = CIRCLE ( 'NONE', #117, 9.000000000000000000 ) ;
#11 = LOCAL_TIME ( 10, 42, 20.00000000000000000, #67 ) ;
#12 = CALENDAR_DATE ( 2023, 13, 2 ) ;
#13 = EDGE_CURVE ( 'NONE', #119, #36, #138, .T. ) ;
#14 =( GEOMETRIC_REPRESENTATION_CONTEXT ( 3 ) GLOBAL_UNCERTAINTY_ASSIGNED_CONTEXT ( ( #213 ) ) GLOBAL_UNIT_ASSIGNED_CONTEXT ( ( #172, #81, #80 ) ) REPRESENTATION_CONTEXT ( 'NONE', 'WORKASPACE' ) );
#15 = DIRECTION ( 'NONE',  ( 1.000000000000000000, 0.000000000000000000, 0.000000000000000000 ) ) ;
#16 = EDGE_CURVE ( 'NONE', #186, #93, #236, .T. ) ;
#17 = CARTESIAN_POINT ( 'NONE',  ( 0.000000000000000000, 0.000000000000000000, 100.0000000000000000 ) ) ;
#18 = DIRECTION ( 'NONE',  ( 0.000000000000000000, 0.000000000000000000, 1.000000000000000000 ) ) ;
#19 = APPROVAL_PERSON_ORGANIZATION ( #247, #223, #64 ) ;
#20 = PERSON_AND_ORGANIZATION ( #253, #155 ) ;
#21 = CARTESIAN_POINT ( 'NONE',  ( -13.00000000000000178, 0.000000000000000000, 7.000000000000000000 ) ) ;
#22 = EDGE_CURVE ( 'NONE', #50, #217, #187, .T. ) ;
#23 = DATE_AND_TIME ( #239, #24 ) ;
#24 = LOCAL_TIME ( 10, 42, 20.00000000000000000, #3 ) ;
#25 = DATE_AND_TIME ( #109, #132 ) ;
#26 = DIRECTION ( 'NONE',  ( 0.000000000000000000, 0.000000000000000000, 1.000000000000000000 ) ) ;
#27 = DIRECTION ( 'NONE',  ( 0.000000000000000000, 0.000000000000000000, 1.000000000000000000 ) ) ;
#28 = CC_DESIGN_SECURITY_CLASSIFICATION ( #102, ( #139 ) ) ;
#29 = ORIENTED_EDGE ( 'NONE', *, *, #105, .F. ) ;
#30 = ADVANCED_FACE ( 'NONE', ( #170 ), #206, .T. ) ;
#31 = CARTESIAN_POINT ( 'NONE',  ( 13.00000000000000178, 1.592040838891559293E-15, 7.000000000000000000 ) ) ;
#32 = ORIENTED_EDGE ( 'NONE', *, *, #214, .F. ) ;
#33 = DATE_AND_TIME ( #12, #226 ) ;
#34 = FACE_OUTER_BOUND ( 'NONE', #233, .T. ) ;
#35 = MECHANICAL_CONTEXT ( 'NONE', #73, 'mechanical' ) ;
#36 = VERTEX_POINT ( 'NONE', #246 ) ;
#37 = DIRECTION ( 'NONE',  ( 0.000000000000000000, 0.000000000000000000, 1.000000000000000000 ) ) ;
#38 = PERSON_AND_ORGANIZATION ( #253, #155 ) ;
#39 = DATE_AND_TIME ( #124, #52 ) ;
#40 = APPROVAL ( #221, 'NEURÈENÝ' ) ;
#41 = CC_DESIGN_APPROVAL ( #235, ( #102 ) ) ;
#42 = CYLINDRICAL_SURFACE ( 'NONE', #57, 9.000000000000000000 ) ;
#43 = DIRECTION ( 'NONE',  ( 0.000000000000000000, 0.000000000000000000, 1.000000000000000000 ) ) ;
#44 = DIRECTION ( 'NONE',  ( -0.000000000000000000, -0.000000000000000000, -1.000000000000000000 ) ) ;
#45 = PRODUCT_RELATED_PRODUCT_CATEGORY ( 'detail', '', ( #54 ) ) ;
#46 = EDGE_CURVE ( 'NONE', #36, #217, #237, .T. ) ;
#47 = AXIS2_PLACEMENT_3D ( 'NONE', #248, #98, #125 ) ;
#48 = CARTESIAN_POINT ( 'NONE',  ( 0.000000000000000000, 0.000000000000000000, 100.0000000000000000 ) ) ;
#49 = ORIENTED_EDGE ( 'NONE', *, *, #249, .T. ) ;
#50 = VERTEX_POINT ( 'NONE', #100 ) ;
#51 = FACE_OUTER_BOUND ( 'NONE', #242, .T. ) ;
#52 = LOCAL_TIME ( 10, 42, 20.00000000000000000, #225 ) ;
#53 = ORIENTED_EDGE ( 'NONE', *, *, #150, .T. ) ;
#54 = PRODUCT ( '7e64', '7e64', '', ( #35 ) ) ;
#55 = AXIS2_PLACEMENT_3D ( 'NONE', #238, #197, #79 ) ;
#56 = VERTEX_POINT ( 'NONE', #68 ) ;
#57 = AXIS2_PLACEMENT_3D ( 'NONE', #205, #185, #127 ) ;
#58 = EDGE_CURVE ( 'NONE', #119, #50, #224, .T. ) ;
#59 = DIRECTION ( 'NONE',  ( 0.000000000000000000, 0.000000000000000000, 1.000000000000000000 ) ) ;
#60 = DATE_AND_TIME ( #182, #11 ) ;
#61 = FACE_OUTER_BOUND ( 'NONE', #112, .T. ) ;
#62 = PERSON_AND_ORGANIZATION ( #253, #155 ) ;
#63 = CC_DESIGN_APPROVAL ( #40, ( #136 ) ) ;
#64 = APPROVAL_ROLE ( '' ) ;
#65 = DIRECTION ( 'NONE',  ( -1.000000000000000000, 0.000000000000000000, 0.000000000000000000 ) ) ;
#66 = ADVANCED_FACE ( 'NONE', ( #122, #134 ), #151, .T. ) ;
#67 = COORDINATED_UNIVERSAL_TIME_OFFSET ( 1, 0, .AHEAD. ) ;
#68 = CARTESIAN_POINT ( 'NONE',  ( -9.000000000000000000, 0.000000000000000000, 7.000000000000000000 ) ) ;
#69 = APPROVAL_DATE_TIME ( #23, #235 ) ;
#70 = ORIENTED_EDGE ( 'NONE', *, *, #214, .T. ) ;
#71 = ORIENTED_EDGE ( 'NONE', *, *, #230, .T. ) ;
#72 = CARTESIAN_POINT ( 'NONE',  ( 0.000000000000000000, 0.000000000000000000, 7.000000000000000000 ) ) ;
#73 = APPLICATION_CONTEXT ( 'configuration controlled 3d designs of mechanical parts and assemblies' ) ;
#74 = CC_DESIGN_APPROVAL ( #223, ( #139 ) ) ;
#75 = ORIENTED_EDGE ( 'NONE', *, *, #13, .T. ) ;
#76 = APPROVAL_PERSON_ORGANIZATION ( #159, #40, #121 ) ;
#77 = CYLINDRICAL_SURFACE ( 'NONE', #55, 13.00000000000000178 ) ;
#78 = DIRECTION ( 'NONE',  ( 0.000000000000000000, 0.000000000000000000, 1.000000000000000000 ) ) ;
#79 = DIRECTION ( 'NONE',  ( -1.000000000000000000, 0.000000000000000000, 0.000000000000000000 ) ) ;
#80 =( NAMED_UNIT ( * ) SI_UNIT ( $, .STERADIAN. ) SOLID_ANGLE_UNIT ( ) );
#81 =( NAMED_UNIT ( * ) PLANE_ANGLE_UNIT ( ) SI_UNIT ( $, .RADIAN. ) );
#82 = PERSON_AND_ORGANIZATION_ROLE ( 'creator' ) ;
#83 = CARTESIAN_POINT ( 'NONE',  ( 0.000000000000000000, 0.000000000000000000, 7.000000000000000000 ) ) ;
#84 = VECTOR ( 'NONE', #228, 1000.000000000000000 ) ;
#85 = DIRECTION ( 'NONE',  ( 1.000000000000000000, 0.000000000000000000, 0.000000000000000000 ) ) ;
#86 = AXIS2_PLACEMENT_3D ( 'NONE', #89, #149, #167 ) ;
#87 = CARTESIAN_POINT ( 'NONE',  ( 0.000000000000000000, 0.000000000000000000, 100.0000000000000000 ) ) ;
#88 = APPLICATION_CONTEXT ( 'configuration controlled 3d designs of mechanical parts and assemblies' ) ;
#89 = CARTESIAN_POINT ( 'NONE',  ( 0.000000000000000000, 0.000000000000000000, 0.000000000000000000 ) ) ;
#90 = CARTESIAN_POINT ( 'NONE',  ( 13.00000000000000178, 1.592040838891559293E-15, 7.000000000000000000 ) ) ;
#91 = DIRECTION ( 'NONE',  ( 1.000000000000000000, 0.000000000000000000, -0.000000000000000000 ) ) ;
#92 = CC_DESIGN_PERSON_AND_ORGANIZATION_ASSIGNMENT ( #126, #207, ( #102 ) ) ;
#93 = VERTEX_POINT ( 'NONE', #231 ) ;
#94 = DESIGN_CONTEXT ( 'detailed design', #88, 'design' ) ;
#95 = DIRECTION ( 'NONE',  ( -0.000000000000000000, -0.000000000000000000, -1.000000000000000000 ) ) ;
#96 = VECTOR ( 'NONE', #174, 1000.000000000000000 ) ;
#97 = CARTESIAN_POINT ( 'NONE',  ( 0.000000000000000000, 0.000000000000000000, 7.000000000000000000 ) ) ;
#98 = DIRECTION ( 'NONE',  ( 0.000000000000000000, 0.000000000000000000, 1.000000000000000000 ) ) ;
#99 = ADVANCED_FACE ( 'NONE', ( #51 ), #146, .T. ) ;
#100 = CARTESIAN_POINT ( 'NONE',  ( -13.00000000000000178, 0.000000000000000000, 7.000000000000000000 ) ) ;
#101 = COORDINATED_UNIVERSAL_TIME_OFFSET ( 1, 0, .AHEAD. ) ;
#102 = SECURITY_CLASSIFICATION ( '', '', #165 ) ;
#103 = APPROVAL_DATE_TIME ( #60, #223 ) ;
#104 = DIRECTION ( 'NONE',  ( 0.000000000000000000, 0.000000000000000000, 1.000000000000000000 ) ) ;
#105 = EDGE_CURVE ( 'NONE', #56, #93, #158, .T. ) ;
#106 = EDGE_LOOP ( 'NONE', ( #229, #255 ) ) ;
#107 = AXIS2_PLACEMENT_3D ( 'NONE', #120, #5, #241 ) ;
#108 = CC_DESIGN_PERSON_AND_ORGANIZATION_ASSIGNMENT ( #204, #244, ( #139 ) ) ;
#109 = CALENDAR_DATE ( 2023, 13, 2 ) ;
#110 = CARTESIAN_POINT ( 'NONE',  ( -9.000000000000000000, 0.000000000000000000, 100.0000000000000000 ) ) ;
#111 = CARTESIAN_POINT ( 'NONE',  ( -9.000000000000000000, 0.000000000000000000, 100.0000000000000000 ) ) ;
#112 = EDGE_LOOP ( 'NONE', ( #32, #181, #218, #188 ) ) ;
#113 = ORIENTED_EDGE ( 'NONE', *, *, #58, .F. ) ;
#114 = AXIS2_PLACEMENT_3D ( 'NONE', #210, #26, #128 ) ;
#115 = DATE_TIME_ROLE ( 'classification_date' ) ;
#116 = FACE_OUTER_BOUND ( 'NONE', #216, .T. ) ;
#117 = AXIS2_PLACEMENT_3D ( 'NONE', #87, #37, #201 ) ;
#118 = PERSON_AND_ORGANIZATION_ROLE ( 'design_owner' ) ;
#119 = VERTEX_POINT ( 'NONE', #90 ) ;
#120 = CARTESIAN_POINT ( 'NONE',  ( 0.000000000000000000, 0.000000000000000000, 7.000000000000000000 ) ) ;
#121 = APPROVAL_ROLE ( '' ) ;
#122 = FACE_BOUND ( 'NONE', #194, .T. ) ;
#123 = APPROVAL_PERSON_ORGANIZATION ( #7, #235, #179 ) ;
#124 = CALENDAR_DATE ( 2023, 13, 2 ) ;
#125 = DIRECTION ( 'NONE',  ( 1.000000000000000000, 0.000000000000000000, 0.000000000000000000 ) ) ;
#126 = PERSON_AND_ORGANIZATION ( #253, #155 ) ;
#127 = DIRECTION ( 'NONE',  ( -1.000000000000000000, 0.000000000000000000, 0.000000000000000000 ) ) ;
#128 = DIRECTION ( 'NONE',  ( 1.000000000000000000, 0.000000000000000000, 0.000000000000000000 ) ) ;
#129 = SHAPE_DEFINITION_REPRESENTATION ( #191, #240 ) ;
#130 = CARTESIAN_POINT ( 'NONE',  ( 0.000000000000000000, 0.000000000000000000, 100.0000000000000000 ) ) ;
#131 = EDGE_LOOP ( 'NONE', ( #234, #152, #133, #71 ) ) ;
#132 = LOCAL_TIME ( 10, 42, 20.00000000000000000, #9 ) ;
#133 = ORIENTED_EDGE ( 'NONE', *, *, #22, .T. ) ;
#134 = FACE_OUTER_BOUND ( 'NONE', #106, .T. ) ;
#135 = CIRCLE ( 'NONE', #1, 9.000000000000000000 ) ;
#136 = PRODUCT_DEFINITION ( 'NEZNÁMÝ', '', #139, #94 ) ;
#137 = ORIENTED_EDGE ( 'NONE', *, *, #153, .F. ) ;
#138 = LINE ( 'NONE', #31, #199 ) ;
#139 = PRODUCT_DEFINITION_FORMATION_WITH_SPECIFIED_SOURCE ( 'LIBOVOLNÝ', '', #54, .NOT_KNOWN. ) ;
#140 = APPLICATION_PROTOCOL_DEFINITION ( 'international standard', 'config_control_design', 1994, #73 ) ;
#141 = CARTESIAN_POINT ( 'NONE',  ( 0.000000000000000000, 0.000000000000000000, 0.000000000000000000 ) ) ;
#142 = AXIS2_PLACEMENT_3D ( 'NONE', #72, #27, #91 ) ;
#143 = PERSON_AND_ORGANIZATION_ROLE ( 'creator' ) ;
#144 = ADVANCED_FACE ( 'NONE', ( #61 ), #42, .T. ) ;
#145 = DIRECTION ( 'NONE',  ( 1.000000000000000000, 0.000000000000000000, 0.000000000000000000 ) ) ;
#146 = CYLINDRICAL_SURFACE ( 'NONE', #175, 9.000000000000000000 ) ;
#147 = EDGE_LOOP ( 'NONE', ( #215, #173 ) ) ;
#148 = CC_DESIGN_DATE_AND_TIME_ASSIGNMENT ( #25, #8, ( #136 ) ) ;
#149 = DIRECTION ( 'NONE',  ( 0.000000000000000000, 0.000000000000000000, 1.000000000000000000 ) ) ;
#150 = EDGE_CURVE ( 'NONE', #251, #186, #10, .T. ) ;
#151 = PLANE ( 'NONE',  #142 ) ;
#152 = ORIENTED_EDGE ( 'NONE', *, *, #200, .F. ) ;
#153 = EDGE_CURVE ( 'NONE', #93, #56, #135, .T. ) ;
#154 = AXIS2_PLACEMENT_3D ( 'NONE', #97, #44, #169 ) ;
#155 = ORGANIZATION ( 'NEURÈENÝ', 'NEURÈENÝ', '' ) ;
#156 = ORIENTED_EDGE ( 'NONE', *, *, #46, .T. ) ;
#157 = DIRECTION ( 'NONE',  ( 1.000000000000000000, 0.000000000000000000, -0.000000000000000000 ) ) ;
#158 = CIRCLE ( 'NONE', #114, 9.000000000000000000 ) ;
#159 = PERSON_AND_ORGANIZATION ( #253, #155 ) ;
#160 = MANIFOLD_SOLID_BREP ( 'Pøidat vysunutím3', #164 ) ;
#161 = PLANE ( 'NONE',  #190 ) ;
#162 = APPROVAL_STATUS ( 'not_yet_approved' ) ;
#163 = CARTESIAN_POINT ( 'NONE',  ( 9.000000000000000000, 1.102182119232617517E-15, 100.0000000000000000 ) ) ;
#164 = CLOSED_SHELL ( 'NONE', ( #144, #4, #30, #66, #178, #99, #208 ) ) ;
#165 = SECURITY_CLASSIFICATION_LEVEL ( 'unclassified' ) ;
#166 = AXIS2_PLACEMENT_3D ( 'NONE', #48, #104, #85 ) ;
#167 = DIRECTION ( 'NONE',  ( 1.000000000000000000, 0.000000000000000000, 0.000000000000000000 ) ) ;
#168 = AXIS2_PLACEMENT_3D ( 'NONE', #17, #78, #157 ) ;
#169 = DIRECTION ( 'NONE',  ( -1.000000000000000000, 0.000000000000000000, 0.000000000000000000 ) ) ;
#170 = FACE_OUTER_BOUND ( 'NONE', #131, .T. ) ;
#171 = CARTESIAN_POINT ( 'NONE',  ( -13.00000000000000178, 0.000000000000000000, 0.000000000000000000 ) ) ;
#172 =( LENGTH_UNIT ( ) NAMED_UNIT ( * ) SI_UNIT ( .MILLI., .METRE. ) );
#173 = ORIENTED_EDGE ( 'NONE', *, *, #46, .F. ) ;
#174 = DIRECTION ( 'NONE',  ( -0.000000000000000000, -0.000000000000000000, -1.000000000000000000 ) ) ;
#175 = AXIS2_PLACEMENT_3D ( 'NONE', #130, #209, #65 ) ;
#176 = CIRCLE ( 'NONE', #86, 13.00000000000000178 ) ;
#177 = CIRCLE ( 'NONE', #166, 9.000000000000000000 ) ;
#178 = ADVANCED_FACE ( 'NONE', ( #6 ), #161, .F. ) ;
#179 = APPROVAL_ROLE ( '' ) ;
#180 = PLANE ( 'NONE',  #168 ) ;
#181 = ORIENTED_EDGE ( 'NONE', *, *, #16, .T. ) ;
#182 = CALENDAR_DATE ( 2023, 13, 2 ) ;
#183 = CC_DESIGN_PERSON_AND_ORGANIZATION_ASSIGNMENT ( #62, #118, ( #54 ) ) ;
#184 = CARTESIAN_POINT ( 'NONE',  ( 9.000000000000000000, 1.102182119232617517E-15, 100.0000000000000000 ) ) ;
#185 = DIRECTION ( 'NONE',  ( -0.000000000000000000, -0.000000000000000000, -1.000000000000000000 ) ) ;
#186 = VERTEX_POINT ( 'NONE', #184 ) ;
#187 = LINE ( 'NONE', #21, #84 ) ;
#188 = ORIENTED_EDGE ( 'NONE', *, *, #249, .F. ) ;
#189 = VECTOR ( 'NONE', #203, 1000.000000000000000 ) ;
#190 = AXIS2_PLACEMENT_3D ( 'NONE', #243, #59, #195 ) ;
#191 = PRODUCT_DEFINITION_SHAPE ( 'NONE', 'NONE',  #136 ) ;
#192 = ORIENTED_EDGE ( 'NONE', *, *, #150, .F. ) ;
#193 = CC_DESIGN_PERSON_AND_ORGANIZATION_ASSIGNMENT ( #20, #143, ( #136 ) ) ;
#194 = EDGE_LOOP ( 'NONE', ( #29, #137 ) ) ;
#195 = DIRECTION ( 'NONE',  ( 1.000000000000000000, 0.000000000000000000, -0.000000000000000000 ) ) ;
#196 = CIRCLE ( 'NONE', #254, 13.00000000000000178 ) ;
#197 = DIRECTION ( 'NONE',  ( -0.000000000000000000, -0.000000000000000000, -1.000000000000000000 ) ) ;
#198 = APPLICATION_PROTOCOL_DEFINITION ( 'international standard', 'config_control_design', 1994, #88 ) ;
#199 = VECTOR ( 'NONE', #95, 1000.000000000000000 ) ;
#200 = EDGE_CURVE ( 'NONE', #50, #119, #196, .T. ) ;
#201 = DIRECTION ( 'NONE',  ( 1.000000000000000000, 0.000000000000000000, 0.000000000000000000 ) ) ;
#202 = APPROVAL_DATE_TIME ( #39, #40 ) ;
#203 = DIRECTION ( 'NONE',  ( -0.000000000000000000, -0.000000000000000000, -1.000000000000000000 ) ) ;
#204 = PERSON_AND_ORGANIZATION ( #253, #155 ) ;
#205 = CARTESIAN_POINT ( 'NONE',  ( 0.000000000000000000, 0.000000000000000000, 100.0000000000000000 ) ) ;
#206 = CYLINDRICAL_SURFACE ( 'NONE', #154, 13.00000000000000178 ) ;
#207 = PERSON_AND_ORGANIZATION_ROLE ( 'classification_officer' ) ;
#208 = ADVANCED_FACE ( 'NONE', ( #116 ), #180, .T. ) ;
#209 = DIRECTION ( 'NONE',  ( -0.000000000000000000, -0.000000000000000000, -1.000000000000000000 ) ) ;
#210 = CARTESIAN_POINT ( 'NONE',  ( 0.000000000000000000, 0.000000000000000000, 7.000000000000000000 ) ) ;
#211 = AXIS2_PLACEMENT_3D ( 'NONE', #141, #245, #220 ) ;
#212 = ORIENTED_EDGE ( 'NONE', *, *, #105, .T. ) ;
#213 = UNCERTAINTY_MEASURE_WITH_UNIT (LENGTH_MEASURE( 1.000000000000000082E-05 ), #172, 'distance_accuracy_value', 'NONE');
#214 = EDGE_CURVE ( 'NONE', #186, #251, #177, .T. ) ;
#215 = ORIENTED_EDGE ( 'NONE', *, *, #230, .F. ) ;
#216 = EDGE_LOOP ( 'NONE', ( #53, #70 ) ) ;
#217 = VERTEX_POINT ( 'NONE', #171 ) ;
#218 = ORIENTED_EDGE ( 'NONE', *, *, #153, .T. ) ;
#219 = CC_DESIGN_DATE_AND_TIME_ASSIGNMENT ( #33, #115, ( #102 ) ) ;
#220 = DIRECTION ( 'NONE',  ( 1.000000000000000000, 0.000000000000000000, 0.000000000000000000 ) ) ;
#221 = APPROVAL_STATUS ( 'not_yet_approved' ) ;
#222 = APPROVAL_STATUS ( 'not_yet_approved' ) ;
#223 = APPROVAL ( #222, 'NEURÈENÝ' ) ;
#224 = CIRCLE ( 'NONE', #107, 13.00000000000000178 ) ;
#225 = COORDINATED_UNIVERSAL_TIME_OFFSET ( 1, 0, .AHEAD. ) ;
#226 = LOCAL_TIME ( 10, 42, 20.00000000000000000, #101 ) ;
#227 = CARTESIAN_POINT ( 'NONE',  ( 0.000000000000000000, 0.000000000000000000, 7.000000000000000000 ) ) ;
#228 = DIRECTION ( 'NONE',  ( -0.000000000000000000, -0.000000000000000000, -1.000000000000000000 ) ) ;
#229 = ORIENTED_EDGE ( 'NONE', *, *, #200, .T. ) ;
#230 = EDGE_CURVE ( 'NONE', #217, #36, #176, .T. ) ;
#231 = CARTESIAN_POINT ( 'NONE',  ( 9.000000000000000000, 1.102182119232617517E-15, 7.000000000000000000 ) ) ;
#232 = LINE ( 'NONE', #111, #96 ) ;
#233 = EDGE_LOOP ( 'NONE', ( #113, #75, #156, #2 ) ) ;
#234 = ORIENTED_EDGE ( 'NONE', *, *, #13, .F. ) ;
#235 = APPROVAL ( #162, 'NEURÈENÝ' ) ;
#236 = LINE ( 'NONE', #163, #189 ) ;
#237 = CIRCLE ( 'NONE', #47, 13.00000000000000178 ) ;
#238 = CARTESIAN_POINT ( 'NONE',  ( 0.000000000000000000, 0.000000000000000000, 7.000000000000000000 ) ) ;
#239 = CALENDAR_DATE ( 2023, 13, 2 ) ;
#240 = ADVANCED_BREP_SHAPE_REPRESENTATION ( '7e64', ( #160, #211 ), #14 ) ;
#241 = DIRECTION ( 'NONE',  ( 1.000000000000000000, 0.000000000000000000, 0.000000000000000000 ) ) ;
#242 = EDGE_LOOP ( 'NONE', ( #252, #192, #49, #212 ) ) ;
#243 = CARTESIAN_POINT ( 'NONE',  ( 0.000000000000000000, 0.000000000000000000, 0.000000000000000000 ) ) ;
#244 = PERSON_AND_ORGANIZATION_ROLE ( 'design_supplier' ) ;
#245 = DIRECTION ( 'NONE',  ( 0.000000000000000000, 0.000000000000000000, 1.000000000000000000 ) ) ;
#246 = CARTESIAN_POINT ( 'NONE',  ( 13.00000000000000178, 1.592040838891559293E-15, 0.000000000000000000 ) ) ;
#247 = PERSON_AND_ORGANIZATION ( #253, #155 ) ;
#248 = CARTESIAN_POINT ( 'NONE',  ( 0.000000000000000000, 0.000000000000000000, 0.000000000000000000 ) ) ;
#249 = EDGE_CURVE ( 'NONE', #251, #56, #232, .T. ) ;
#250 = CC_DESIGN_PERSON_AND_ORGANIZATION_ASSIGNMENT ( #38, #82, ( #139 ) ) ;
#251 = VERTEX_POINT ( 'NONE', #110 ) ;
#252 = ORIENTED_EDGE ( 'NONE', *, *, #16, .F. ) ;
#253 = PERSON ( 'NEURÈENÝ', 'NEURÈENÝ', 'NEURÈENÝ', ('NEURÈENÝ'), ('NEURÈENÝ'), ('NEURÈENÝ') ) ;
#254 = AXIS2_PLACEMENT_3D ( 'NONE', #227, #43, #15 ) ;
#255 = ORIENTED_EDGE ( 'NONE', *, *, #58, .T. ) ;
ENDSEC;
END-ISO-10303-21;
