ISO-10303-21;
HEADER;
FILE_DESCRIPTION (( 'STEP AP203' ),
    '1' );
FILE_NAME ('8052.STEP',
    '2023-02-13T17:14:51',
    ( '' ),
    ( '' ),
    'SwSTEP 2.0',
    'SolidWorks 2019',
    '' );
FILE_SCHEMA (( 'CONFIG_CONTROL_DESIGN' ));
ENDSEC;

DATA;
#1 = CARTESIAN_POINT ( 'NONE',  ( -1.000000000000000000, 0.000000000000000000, 125.0000000000000000 ) ) ;
#2 = DIRECTION ( 'NONE',  ( 0.000000000000000000, 0.000000000000000000, 1.000000000000000000 ) ) ;
#3 = AXIS2_PLACEMENT_3D ( 'NONE', #95, #132, #56 ) ;
#4 = ADVANCED_FACE ( 'NONE', ( #244 ), #181, .F. ) ;
#5 = DIRECTION ( 'NONE',  ( 1.000000000000000000, 0.000000000000000000, 0.000000000000000000 ) ) ;
#6 = DIRECTION ( 'NONE',  ( 1.000000000000000000, 0.000000000000000000, 0.000000000000000000 ) ) ;
#7 = ORIENTED_EDGE ( 'NONE', *, *, #77, .F. ) ;
#8 = AXIS2_PLACEMENT_3D ( 'NONE', #138, #241, #6 ) ;
#9 = LOCAL_TIME ( 18, 14, 51.00000000000000000, #213 ) ;
#10 = DIRECTION ( 'NONE',  ( -1.000000000000000000, 0.000000000000000000, 0.000000000000000000 ) ) ;
#11 = CARTESIAN_POINT ( 'NONE',  ( 0.000000000000000000, 0.000000000000000000, 2.000000000000000000 ) ) ;
#12 = CC_DESIGN_DATE_AND_TIME_ASSIGNMENT ( #135, #180, ( #136 ) ) ;
#13 = COORDINATED_UNIVERSAL_TIME_OFFSET ( 1, 0, .AHEAD. ) ;
#14 = CIRCLE ( 'NONE', #151, 2.000000000000000000 ) ;
#15 = FACE_OUTER_BOUND ( 'NONE', #139, .T. ) ;
#16 = DATE_AND_TIME ( #195, #17 ) ;
#17 = LOCAL_TIME ( 18, 14, 51.00000000000000000, #72 ) ;
#18 = CYLINDRICAL_SURFACE ( 'NONE', #168, 2.000000000000000000 ) ;
#19 = ORIENTED_EDGE ( 'NONE', *, *, #230, .F. ) ;
#20 = APPROVAL_DATE_TIME ( #199, #182 ) ;
#21 = CARTESIAN_POINT ( 'NONE',  ( 0.000000000000000000, 0.000000000000000000, 2.000000000000000000 ) ) ;
#22 = VERTEX_POINT ( 'NONE', #255 ) ;
#23 = LOCAL_TIME ( 18, 14, 51.00000000000000000, #13 ) ;
#24 = ADVANCED_FACE ( 'NONE', ( #15 ), #18, .T. ) ;
#25 = DIRECTION ( 'NONE',  ( -1.000000000000000000, 0.000000000000000000, 0.000000000000000000 ) ) ;
#26 = ORIENTED_EDGE ( 'NONE', *, *, #165, .T. ) ;
#27 = CARTESIAN_POINT ( 'NONE',  ( 0.000000000000000000, 0.000000000000000000, 2.000000000000000000 ) ) ;
#28 = EDGE_LOOP ( 'NONE', ( #205, #206 ) ) ;
#29 = CC_DESIGN_DATE_AND_TIME_ASSIGNMENT ( #129, #172, ( #123 ) ) ;
#30 = AXIS2_PLACEMENT_3D ( 'NONE', #60, #66, #119 ) ;
#31 = CC_DESIGN_APPROVAL ( #104, ( #148 ) ) ;
#32 = DIRECTION ( 'NONE',  ( 0.000000000000000000, 0.000000000000000000, 1.000000000000000000 ) ) ;
#33 = DESIGN_CONTEXT ( 'detailed design', #125, 'design' ) ;
#34 = DIRECTION ( 'NONE',  ( 1.000000000000000000, 0.000000000000000000, 0.000000000000000000 ) ) ;
#35 = CIRCLE ( 'NONE', #8, 1.000000000000000000 ) ;
#36 = CIRCLE ( 'NONE', #238, 1.000000000000000000 ) ;
#37 = APPROVAL ( #88, 'NEURÈENÝ' ) ;
#38 = PERSON_AND_ORGANIZATION ( #235, #163 ) ;
#39 = CIRCLE ( 'NONE', #191, 2.000000000000000000 ) ;
#40 = EDGE_CURVE ( 'NONE', #82, #201, #149, .T. ) ;
#41 = CALENDAR_DATE ( 2023, 13, 2 ) ;
#42 = EDGE_LOOP ( 'NONE', ( #7, #144 ) ) ;
#43 = CARTESIAN_POINT ( 'NONE',  ( -1.000000000000000000, 0.000000000000000000, 125.0000000000000000 ) ) ;
#44 = CYLINDRICAL_SURFACE ( 'NONE', #46, 2.000000000000000000 ) ;
#45 = EDGE_LOOP ( 'NONE', ( #137, #237 ) ) ;
#46 = AXIS2_PLACEMENT_3D ( 'NONE', #86, #224, #25 ) ;
#47 = VERTEX_POINT ( 'NONE', #1 ) ;
#48 = CARTESIAN_POINT ( 'NONE',  ( -2.000000000000000000, 0.000000000000000000, 0.000000000000000000 ) ) ;
#49 = LOCAL_TIME ( 18, 14, 51.00000000000000000, #249 ) ;
#50 = CC_DESIGN_PERSON_AND_ORGANIZATION_ASSIGNMENT ( #107, #248, ( #253 ) ) ;
#51 = DATE_AND_TIME ( #91, #23 ) ;
#52 = EDGE_CURVE ( 'NONE', #120, #62, #142, .T. ) ;
#53 = PERSON_AND_ORGANIZATION ( #235, #163 ) ;
#54 = APPROVAL_STATUS ( 'not_yet_approved' ) ;
#55 = VECTOR ( 'NONE', #121, 1000.000000000000000 ) ;
#56 = DIRECTION ( 'NONE',  ( 1.000000000000000000, 0.000000000000000000, 0.000000000000000000 ) ) ;
#57 = COORDINATED_UNIVERSAL_TIME_OFFSET ( 1, 0, .AHEAD. ) ;
#58 = ORIENTED_EDGE ( 'NONE', *, *, #52, .T. ) ;
#59 = CARTESIAN_POINT ( 'NONE',  ( -1.000000000000000000, 0.000000000000000000, 2.000000000000000000 ) ) ;
#60 = CARTESIAN_POINT ( 'NONE',  ( 0.000000000000000000, 0.000000000000000000, 125.0000000000000000 ) ) ;
#61 = FACE_OUTER_BOUND ( 'NONE', #28, .T. ) ;
#62 = VERTEX_POINT ( 'NONE', #194 ) ;
#63 = APPROVAL_PERSON_ORGANIZATION ( #38, #182, #236 ) ;
#64 = CC_DESIGN_PERSON_AND_ORGANIZATION_ASSIGNMENT ( #232, #193, ( #148 ) ) ;
#65 = CARTESIAN_POINT ( 'NONE',  ( 0.000000000000000000, 0.000000000000000000, 125.0000000000000000 ) ) ;
#66 = DIRECTION ( 'NONE',  ( 0.000000000000000000, 0.000000000000000000, 1.000000000000000000 ) ) ;
#67 = AXIS2_PLACEMENT_3D ( 'NONE', #215, #2, #252 ) ;
#68 = APPROVAL_ROLE ( '' ) ;
#69 = CALENDAR_DATE ( 2023, 13, 2 ) ;
#70 = ADVANCED_FACE ( 'NONE', ( #133 ), #254, .T. ) ;
#71 = UNCERTAINTY_MEASURE_WITH_UNIT (LENGTH_MEASURE( 1.000000000000000082E-05 ), #108, 'distance_accuracy_value', 'NONE');
#72 = COORDINATED_UNIVERSAL_TIME_OFFSET ( 1, 0, .AHEAD. ) ;
#73 = DIRECTION ( 'NONE',  ( -0.000000000000000000, -0.000000000000000000, -1.000000000000000000 ) ) ;
#74 = APPROVAL_ROLE ( '' ) ;
#75 = APPROVAL_PERSON_ORGANIZATION ( #92, #104, #74 ) ;
#76 = CARTESIAN_POINT ( 'NONE',  ( 0.000000000000000000, 0.000000000000000000, 125.0000000000000000 ) ) ;
#77 = EDGE_CURVE ( 'NONE', #201, #82, #14, .T. ) ;
#78 = ORIENTED_EDGE ( 'NONE', *, *, #52, .F. ) ;
#79 = LINE ( 'NONE', #143, #231 ) ;
#80 = EDGE_LOOP ( 'NONE', ( #103, #198, #26, #58 ) ) ;
#81 = EDGE_CURVE ( 'NONE', #22, #47, #35, .T. ) ;
#82 = VERTEX_POINT ( 'NONE', #188 ) ;
#83 = CARTESIAN_POINT ( 'NONE',  ( 0.000000000000000000, 0.000000000000000000, 125.0000000000000000 ) ) ;
#84 = VERTEX_POINT ( 'NONE', #200 ) ;
#85 = DIRECTION ( 'NONE',  ( 1.000000000000000000, 0.000000000000000000, 0.000000000000000000 ) ) ;
#86 = CARTESIAN_POINT ( 'NONE',  ( 0.000000000000000000, 0.000000000000000000, 2.000000000000000000 ) ) ;
#87 = LOCAL_TIME ( 18, 14, 51.00000000000000000, #57 ) ;
#88 = APPROVAL_STATUS ( 'not_yet_approved' ) ;
#89 = APPLICATION_CONTEXT ( 'configuration controlled 3d designs of mechanical parts and assemblies' ) ;
#90 = CARTESIAN_POINT ( 'NONE',  ( 2.000000000000000000, 2.449293598294706414E-16, 2.000000000000000000 ) ) ;
#91 = CALENDAR_DATE ( 2023, 13, 2 ) ;
#92 = PERSON_AND_ORGANIZATION ( #235, #163 ) ;
#93 = CARTESIAN_POINT ( 'NONE',  ( 0.000000000000000000, 0.000000000000000000, 2.000000000000000000 ) ) ;
#94 = AXIS2_PLACEMENT_3D ( 'NONE', #190, #209, #34 ) ;
#95 = CARTESIAN_POINT ( 'NONE',  ( 0.000000000000000000, 0.000000000000000000, 0.000000000000000000 ) ) ;
#96 = EDGE_LOOP ( 'NONE', ( #78, #19 ) ) ;
#97 = DIRECTION ( 'NONE',  ( 1.000000000000000000, 0.000000000000000000, 0.000000000000000000 ) ) ;
#98 = ORIENTED_EDGE ( 'NONE', *, *, #81, .F. ) ;
#99 = EDGE_CURVE ( 'NONE', #47, #22, #177, .T. ) ;
#100 = CARTESIAN_POINT ( 'NONE',  ( -2.000000000000000000, 0.000000000000000000, 2.000000000000000000 ) ) ;
#101 = ORIENTED_EDGE ( 'NONE', *, *, #227, .F. ) ;
#102 = DIRECTION ( 'NONE',  ( -0.000000000000000000, -0.000000000000000000, -1.000000000000000000 ) ) ;
#103 = ORIENTED_EDGE ( 'NONE', *, *, #233, .F. ) ;
#104 = APPROVAL ( #54, 'NEURÈENÝ' ) ;
#105 = APPLICATION_PROTOCOL_DEFINITION ( 'international standard', 'config_control_design', 1994, #125 ) ;
#106 = ADVANCED_FACE ( 'NONE', ( #208 ), #239, .T. ) ;
#107 = PERSON_AND_ORGANIZATION ( #235, #163 ) ;
#108 =( LENGTH_UNIT ( ) NAMED_UNIT ( * ) SI_UNIT ( .MILLI., .METRE. ) );
#109 = CARTESIAN_POINT ( 'NONE',  ( 1.000000000000000000, 1.224646799147353207E-16, 125.0000000000000000 ) ) ;
#110 = DIRECTION ( 'NONE',  ( 1.000000000000000000, 0.000000000000000000, 0.000000000000000000 ) ) ;
#111 = DIRECTION ( 'NONE',  ( 0.000000000000000000, 0.000000000000000000, 1.000000000000000000 ) ) ;
#112 = CLOSED_SHELL ( 'NONE', ( #106, #24, #140, #197, #4, #70, #126 ) ) ;
#113 = EDGE_CURVE ( 'NONE', #240, #82, #79, .T. ) ;
#114 = ORIENTED_EDGE ( 'NONE', *, *, #77, .T. ) ;
#115 = FACE_BOUND ( 'NONE', #96, .T. ) ;
#116 = EDGE_LOOP ( 'NONE', ( #98, #159, #161, #217 ) ) ;
#117 = DIRECTION ( 'NONE',  ( 0.000000000000000000, 0.000000000000000000, 1.000000000000000000 ) ) ;
#118 = ORIENTED_EDGE ( 'NONE', *, *, #113, .T. ) ;
#119 = DIRECTION ( 'NONE',  ( 1.000000000000000000, 0.000000000000000000, -0.000000000000000000 ) ) ;
#120 = VERTEX_POINT ( 'NONE', #59 ) ;
#121 = DIRECTION ( 'NONE',  ( -0.000000000000000000, -0.000000000000000000, -1.000000000000000000 ) ) ;
#122 = DIRECTION ( 'NONE',  ( 1.000000000000000000, 0.000000000000000000, -0.000000000000000000 ) ) ;
#123 = PRODUCT_DEFINITION ( 'NEZNÁMÝ', '', #148, #33 ) ;
#124 = CC_DESIGN_APPROVAL ( #37, ( #123 ) ) ;
#125 = APPLICATION_CONTEXT ( 'configuration controlled 3d designs of mechanical parts and assemblies' ) ;
#126 = ADVANCED_FACE ( 'NONE', ( #61 ), #186, .T. ) ;
#127 = APPROVAL_DATE_TIME ( #51, #37 ) ;
#128 = AXIS2_PLACEMENT_3D ( 'NONE', #65, #245, #85 ) ;
#129 = DATE_AND_TIME ( #69, #49 ) ;
#130 = DIRECTION ( 'NONE',  ( -1.000000000000000000, 0.000000000000000000, 0.000000000000000000 ) ) ;
#131 = PRODUCT_RELATED_PRODUCT_CATEGORY ( 'detail', '', ( #253 ) ) ;
#132 = DIRECTION ( 'NONE',  ( 0.000000000000000000, 0.000000000000000000, 1.000000000000000000 ) ) ;
#133 = FACE_OUTER_BOUND ( 'NONE', #80, .T. ) ;
#134 = AXIS2_PLACEMENT_3D ( 'NONE', #83, #102, #10 ) ;
#135 = DATE_AND_TIME ( #41, #9 ) ;
#136 = SECURITY_CLASSIFICATION ( '', '', #175 ) ;
#137 = ORIENTED_EDGE ( 'NONE', *, *, #220, .T. ) ;
#138 = CARTESIAN_POINT ( 'NONE',  ( 0.000000000000000000, 0.000000000000000000, 125.0000000000000000 ) ) ;
#139 = EDGE_LOOP ( 'NONE', ( #157, #118, #141, #101 ) ) ;
#140 = ADVANCED_FACE ( 'NONE', ( #166 ), #44, .T. ) ;
#141 = ORIENTED_EDGE ( 'NONE', *, *, #40, .T. ) ;
#142 = CIRCLE ( 'NONE', #202, 1.000000000000000000 ) ;
#143 = CARTESIAN_POINT ( 'NONE',  ( 2.000000000000000000, 2.449293598294706414E-16, 2.000000000000000000 ) ) ;
#144 = ORIENTED_EDGE ( 'NONE', *, *, #40, .F. ) ;
#145 = MANIFOLD_SOLID_BREP ( 'Pøidat vysunutím3', #112 ) ;
#146 = DIRECTION ( 'NONE',  ( -0.000000000000000000, -0.000000000000000000, -1.000000000000000000 ) ) ;
#147 = FACE_OUTER_BOUND ( 'NONE', #45, .T. ) ;
#148 = PRODUCT_DEFINITION_FORMATION_WITH_SPECIFIED_SOURCE ( 'LIBOVOLNÝ', '', #253, .NOT_KNOWN. ) ;
#149 = CIRCLE ( 'NONE', #3, 2.000000000000000000 ) ;
#150 = EDGE_CURVE ( 'NONE', #240, #84, #39, .T. ) ;
#151 = AXIS2_PLACEMENT_3D ( 'NONE', #196, #160, #218 ) ;
#152 = AXIS2_PLACEMENT_3D ( 'NONE', #27, #32, #97 ) ;
#153 = DIRECTION ( 'NONE',  ( -0.000000000000000000, -0.000000000000000000, -1.000000000000000000 ) ) ;
#154 = PERSON_AND_ORGANIZATION_ROLE ( 'classification_officer' ) ;
#155 = APPROVAL_STATUS ( 'not_yet_approved' ) ;
#156 = CARTESIAN_POINT ( 'NONE',  ( 0.000000000000000000, 0.000000000000000000, 2.000000000000000000 ) ) ;
#157 = ORIENTED_EDGE ( 'NONE', *, *, #150, .F. ) ;
#158 = CC_DESIGN_PERSON_AND_ORGANIZATION_ASSIGNMENT ( #53, #211, ( #148 ) ) ;
#159 = ORIENTED_EDGE ( 'NONE', *, *, #233, .T. ) ;
#160 = DIRECTION ( 'NONE',  ( 0.000000000000000000, 0.000000000000000000, 1.000000000000000000 ) ) ;
#161 = ORIENTED_EDGE ( 'NONE', *, *, #230, .T. ) ;
#162 = DIRECTION ( 'NONE',  ( 0.000000000000000000, 0.000000000000000000, 1.000000000000000000 ) ) ;
#163 = ORGANIZATION ( 'NEURÈENÝ', 'NEURÈENÝ', '' ) ;
#164 = ORIENTED_EDGE ( 'NONE', *, *, #113, .F. ) ;
#165 = EDGE_CURVE ( 'NONE', #47, #120, #222, .T. ) ;
#166 = FACE_OUTER_BOUND ( 'NONE', #223, .T. ) ;
#167 =( NAMED_UNIT ( * ) SI_UNIT ( $, .STERADIAN. ) SOLID_ANGLE_UNIT ( ) );
#168 = AXIS2_PLACEMENT_3D ( 'NONE', #93, #73, #130 ) ;
#169 =( NAMED_UNIT ( * ) PLANE_ANGLE_UNIT ( ) SI_UNIT ( $, .RADIAN. ) );
#170 = PERSON_AND_ORGANIZATION_ROLE ( 'creator' ) ;
#171 = APPROVAL_PERSON_ORGANIZATION ( #210, #37, #68 ) ;
#172 = DATE_TIME_ROLE ( 'creation_date' ) ;
#173 = ADVANCED_BREP_SHAPE_REPRESENTATION ( '8052', ( #145, #94 ), #250 ) ;
#174 = PRODUCT_DEFINITION_SHAPE ( 'NONE', 'NONE',  #123 ) ;
#175 = SECURITY_CLASSIFICATION_LEVEL ( 'unclassified' ) ;
#176 = CC_DESIGN_PERSON_AND_ORGANIZATION_ASSIGNMENT ( #251, #154, ( #136 ) ) ;
#177 = CIRCLE ( 'NONE', #128, 1.000000000000000000 ) ;
#178 = CC_DESIGN_SECURITY_CLASSIFICATION ( #136, ( #148 ) ) ;
#179 = APPROVAL_DATE_TIME ( #16, #104 ) ;
#180 = DATE_TIME_ROLE ( 'classification_date' ) ;
#181 = PLANE ( 'NONE',  #67 ) ;
#182 = APPROVAL ( #155, 'NEURÈENÝ' ) ;
#183 = CC_DESIGN_APPROVAL ( #182, ( #136 ) ) ;
#184 = SHAPE_DEFINITION_REPRESENTATION ( #174, #173 ) ;
#185 = DIRECTION ( 'NONE',  ( 0.000000000000000000, 0.000000000000000000, 1.000000000000000000 ) ) ;
#186 = PLANE ( 'NONE',  #30 ) ;
#187 = ORIENTED_EDGE ( 'NONE', *, *, #220, .F. ) ;
#188 = CARTESIAN_POINT ( 'NONE',  ( 2.000000000000000000, 2.449293598294706414E-16, 0.000000000000000000 ) ) ;
#189 = LINE ( 'NONE', #109, #234 ) ;
#190 = CARTESIAN_POINT ( 'NONE',  ( 0.000000000000000000, 0.000000000000000000, 0.000000000000000000 ) ) ;
#191 = AXIS2_PLACEMENT_3D ( 'NONE', #11, #162, #216 ) ;
#192 = PERSON_AND_ORGANIZATION ( #235, #163 ) ;
#193 = PERSON_AND_ORGANIZATION_ROLE ( 'creator' ) ;
#194 = CARTESIAN_POINT ( 'NONE',  ( 1.000000000000000000, 1.224646799147353207E-16, 2.000000000000000000 ) ) ;
#195 = CALENDAR_DATE ( 2023, 13, 2 ) ;
#196 = CARTESIAN_POINT ( 'NONE',  ( 0.000000000000000000, 0.000000000000000000, 0.000000000000000000 ) ) ;
#197 = ADVANCED_FACE ( 'NONE', ( #115, #147 ), #243, .T. ) ;
#198 = ORIENTED_EDGE ( 'NONE', *, *, #99, .F. ) ;
#199 = DATE_AND_TIME ( #214, #87 ) ;
#200 = CARTESIAN_POINT ( 'NONE',  ( -2.000000000000000000, 0.000000000000000000, 2.000000000000000000 ) ) ;
#201 = VERTEX_POINT ( 'NONE', #48 ) ;
#202 = AXIS2_PLACEMENT_3D ( 'NONE', #156, #111, #110 ) ;
#203 = AXIS2_PLACEMENT_3D ( 'NONE', #225, #117, #122 ) ;
#204 = DIRECTION ( 'NONE',  ( -0.000000000000000000, -0.000000000000000000, -1.000000000000000000 ) ) ;
#205 = ORIENTED_EDGE ( 'NONE', *, *, #99, .T. ) ;
#206 = ORIENTED_EDGE ( 'NONE', *, *, #81, .T. ) ;
#207 = LINE ( 'NONE', #100, #221 ) ;
#208 = FACE_OUTER_BOUND ( 'NONE', #116, .T. ) ;
#209 = DIRECTION ( 'NONE',  ( 0.000000000000000000, 0.000000000000000000, 1.000000000000000000 ) ) ;
#210 = PERSON_AND_ORGANIZATION ( #235, #163 ) ;
#211 = PERSON_AND_ORGANIZATION_ROLE ( 'design_supplier' ) ;
#212 = DIRECTION ( 'NONE',  ( -1.000000000000000000, 0.000000000000000000, 0.000000000000000000 ) ) ;
#213 = COORDINATED_UNIVERSAL_TIME_OFFSET ( 1, 0, .AHEAD. ) ;
#214 = CALENDAR_DATE ( 2023, 13, 2 ) ;
#215 = CARTESIAN_POINT ( 'NONE',  ( 0.000000000000000000, 0.000000000000000000, 0.000000000000000000 ) ) ;
#216 = DIRECTION ( 'NONE',  ( 1.000000000000000000, 0.000000000000000000, 0.000000000000000000 ) ) ;
#217 = ORIENTED_EDGE ( 'NONE', *, *, #165, .F. ) ;
#218 = DIRECTION ( 'NONE',  ( 1.000000000000000000, 0.000000000000000000, 0.000000000000000000 ) ) ;
#219 = ORIENTED_EDGE ( 'NONE', *, *, #227, .T. ) ;
#220 = EDGE_CURVE ( 'NONE', #84, #240, #247, .T. ) ;
#221 = VECTOR ( 'NONE', #146, 1000.000000000000000 ) ;
#222 = LINE ( 'NONE', #43, #55 ) ;
#223 = EDGE_LOOP ( 'NONE', ( #164, #187, #219, #114 ) ) ;
#224 = DIRECTION ( 'NONE',  ( -0.000000000000000000, -0.000000000000000000, -1.000000000000000000 ) ) ;
#225 = CARTESIAN_POINT ( 'NONE',  ( 0.000000000000000000, 0.000000000000000000, 2.000000000000000000 ) ) ;
#226 = DIRECTION ( 'NONE',  ( -0.000000000000000000, -0.000000000000000000, -1.000000000000000000 ) ) ;
#227 = EDGE_CURVE ( 'NONE', #84, #201, #207, .T. ) ;
#228 = MECHANICAL_CONTEXT ( 'NONE', #89, 'mechanical' ) ;
#229 = APPLICATION_PROTOCOL_DEFINITION ( 'international standard', 'config_control_design', 1994, #89 ) ;
#230 = EDGE_CURVE ( 'NONE', #62, #120, #36, .T. ) ;
#231 = VECTOR ( 'NONE', #204, 1000.000000000000000 ) ;
#232 = PERSON_AND_ORGANIZATION ( #235, #163 ) ;
#233 = EDGE_CURVE ( 'NONE', #22, #62, #189, .T. ) ;
#234 = VECTOR ( 'NONE', #226, 1000.000000000000000 ) ;
#235 = PERSON ( 'NEURÈENÝ', 'NEURÈENÝ', 'NEURÈENÝ', ('NEURÈENÝ'), ('NEURÈENÝ'), ('NEURÈENÝ') ) ;
#236 = APPROVAL_ROLE ( '' ) ;
#237 = ORIENTED_EDGE ( 'NONE', *, *, #150, .T. ) ;
#238 = AXIS2_PLACEMENT_3D ( 'NONE', #21, #185, #5 ) ;
#239 = CYLINDRICAL_SURFACE ( 'NONE', #134, 1.000000000000000000 ) ;
#240 = VERTEX_POINT ( 'NONE', #90 ) ;
#241 = DIRECTION ( 'NONE',  ( 0.000000000000000000, 0.000000000000000000, 1.000000000000000000 ) ) ;
#242 = AXIS2_PLACEMENT_3D ( 'NONE', #76, #153, #212 ) ;
#243 = PLANE ( 'NONE',  #203 ) ;
#244 = FACE_OUTER_BOUND ( 'NONE', #42, .T. ) ;
#245 = DIRECTION ( 'NONE',  ( 0.000000000000000000, 0.000000000000000000, 1.000000000000000000 ) ) ;
#246 = CC_DESIGN_PERSON_AND_ORGANIZATION_ASSIGNMENT ( #192, #170, ( #123 ) ) ;
#247 = CIRCLE ( 'NONE', #152, 2.000000000000000000 ) ;
#248 = PERSON_AND_ORGANIZATION_ROLE ( 'design_owner' ) ;
#249 = COORDINATED_UNIVERSAL_TIME_OFFSET ( 1, 0, .AHEAD. ) ;
#250 =( GEOMETRIC_REPRESENTATION_CONTEXT ( 3 ) GLOBAL_UNCERTAINTY_ASSIGNED_CONTEXT ( ( #71 ) ) GLOBAL_UNIT_ASSIGNED_CONTEXT ( ( #108, #169, #167 ) ) REPRESENTATION_CONTEXT ( 'NONE', 'WORKASPACE' ) );
#251 = PERSON_AND_ORGANIZATION ( #235, #163 ) ;
#252 = DIRECTION ( 'NONE',  ( 1.000000000000000000, 0.000000000000000000, -0.000000000000000000 ) ) ;
#253 = PRODUCT ( '8052', '8052', '', ( #228 ) ) ;
#254 = CYLINDRICAL_SURFACE ( 'NONE', #242, 1.000000000000000000 ) ;
#255 = CARTESIAN_POINT ( 'NONE',  ( 1.000000000000000000, 1.224646799147353207E-16, 125.0000000000000000 ) ) ;
ENDSEC;
END-ISO-10303-21;
