ISO-10303-21;
HEADER;
FILE_DESCRIPTION (( 'STEP AP203' ),
    '1' );
FILE_NAME ('e28c.STEP',
    '2023-02-13T16:37:19',
    ( '' ),
    ( '' ),
    'SwSTEP 2.0',
    'SolidWorks 2019',
    '' );
FILE_SCHEMA (( 'CONFIG_CONTROL_DESIGN' ));
ENDSEC;

DATA;
#1 = PERSON_AND_ORGANIZATION_ROLE ( 'design_owner' ) ;
#2 = ADVANCED_FACE ( 'NONE', ( #130 ), #203, .T. ) ;
#3 = PERSON_AND_ORGANIZATION_ROLE ( 'creator' ) ;
#4 = DATE_AND_TIME ( #74, #171 ) ;
#5 = VERTEX_POINT ( 'NONE', #27 ) ;
#6 = AXIS2_PLACEMENT_3D ( 'NONE', #60, #227, #13 ) ;
#7 = PERSON_AND_ORGANIZATION_ROLE ( 'design_supplier' ) ;
#8 = AXIS2_PLACEMENT_3D ( 'NONE', #17, #97, #113 ) ;
#9 = ORIENTED_EDGE ( 'NONE', *, *, #214, .F. ) ;
#10 = CLOSED_SHELL ( 'NONE', ( #198, #182, #12, #193, #170, #2, #206 ) ) ;
#11 = CIRCLE ( 'NONE', #8, 2.000000000000000000 ) ;
#12 = ADVANCED_FACE ( 'NONE', ( #31 ), #186, .T. ) ;
#13 = DIRECTION ( 'NONE',  ( 1.000000000000000000, 0.000000000000000000, 0.000000000000000000 ) ) ;
#14 = CARTESIAN_POINT ( 'NONE',  ( -4.000000000000000000, 0.000000000000000000, 4.000000000000000000 ) ) ;
#15 = VECTOR ( 'NONE', #172, 1000.000000000000000 ) ;
#16 = AXIS2_PLACEMENT_3D ( 'NONE', #82, #42, #255 ) ;
#17 = CARTESIAN_POINT ( 'NONE',  ( 0.000000000000000000, 0.000000000000000000, 4.000000000000000000 ) ) ;
#18 = VERTEX_POINT ( 'NONE', #131 ) ;
#19 = DIRECTION ( 'NONE',  ( 1.000000000000000000, 0.000000000000000000, -0.000000000000000000 ) ) ;
#20 = ORIENTED_EDGE ( 'NONE', *, *, #157, .T. ) ;
#21 = PERSON_AND_ORGANIZATION ( #116, #111 ) ;
#22 = EDGE_CURVE ( 'NONE', #18, #47, #230, .T. ) ;
#23 = APPROVAL_PERSON_ORGANIZATION ( #92, #58, #221 ) ;
#24 = CARTESIAN_POINT ( 'NONE',  ( 0.000000000000000000, 0.000000000000000000, 160.0000000000000000 ) ) ;
#25 = ORIENTED_EDGE ( 'NONE', *, *, #54, .F. ) ;
#26 = APPROVAL_STATUS ( 'not_yet_approved' ) ;
#27 = CARTESIAN_POINT ( 'NONE',  ( 4.000000000000000000, 4.898587196589412829E-16, 4.000000000000000000 ) ) ;
#28 = APPROVAL ( #89, 'NEURÈENÝ' ) ;
#29 = VERTEX_POINT ( 'NONE', #188 ) ;
#30 = SECURITY_CLASSIFICATION_LEVEL ( 'unclassified' ) ;
#31 = FACE_OUTER_BOUND ( 'NONE', #149, .T. ) ;
#32 = AXIS2_PLACEMENT_3D ( 'NONE', #153, #79, #192 ) ;
#33 = AXIS2_PLACEMENT_3D ( 'NONE', #226, #225, #152 ) ;
#34 = FACE_OUTER_BOUND ( 'NONE', #243, .T. ) ;
#35 = LOCAL_TIME ( 17, 37, 19.00000000000000000, #150 ) ;
#36 = LINE ( 'NONE', #117, #15 ) ;
#37 = DESIGN_CONTEXT ( 'detailed design', #248, 'design' ) ;
#38 = DIRECTION ( 'NONE',  ( 0.000000000000000000, 0.000000000000000000, 1.000000000000000000 ) ) ;
#39 = VERTEX_POINT ( 'NONE', #173 ) ;
#40 = PRODUCT ( 'e28c', 'e28c', '', ( #85 ) ) ;
#41 = CARTESIAN_POINT ( 'NONE',  ( 2.000000000000000000, 2.449293598294706414E-16, 160.0000000000000000 ) ) ;
#42 = DIRECTION ( 'NONE',  ( 0.000000000000000000, 0.000000000000000000, 1.000000000000000000 ) ) ;
#43 = EDGE_CURVE ( 'NONE', #39, #105, #124, .T. ) ;
#44 = APPLICATION_PROTOCOL_DEFINITION ( 'international standard', 'config_control_design', 1994, #248 ) ;
#45 = LINE ( 'NONE', #212, #187 ) ;
#46 = AXIS2_PLACEMENT_3D ( 'NONE', #84, #177, #19 ) ;
#47 = VERTEX_POINT ( 'NONE', #115 ) ;
#48 = CALENDAR_DATE ( 2023, 13, 2 ) ;
#49 = CALENDAR_DATE ( 2023, 13, 2 ) ;
#50 = ORIENTED_EDGE ( 'NONE', *, *, #93, .T. ) ;
#51 = ORIENTED_EDGE ( 'NONE', *, *, #224, .T. ) ;
#52 = DATE_AND_TIME ( #106, #35 ) ;
#53 = DIRECTION ( 'NONE',  ( -1.000000000000000000, 0.000000000000000000, 0.000000000000000000 ) ) ;
#54 = EDGE_CURVE ( 'NONE', #29, #211, #168, .T. ) ;
#55 = SHAPE_DEFINITION_REPRESENTATION ( #136, #213 ) ;
#56 = ORIENTED_EDGE ( 'NONE', *, *, #43, .F. ) ;
#57 = ORIENTED_EDGE ( 'NONE', *, *, #157, .F. ) ;
#58 = APPROVAL ( #216, 'NEURÈENÝ' ) ;
#59 = UNCERTAINTY_MEASURE_WITH_UNIT (LENGTH_MEASURE( 1.000000000000000082E-05 ), #66, 'distance_accuracy_value', 'NONE');
#60 = CARTESIAN_POINT ( 'NONE',  ( 0.000000000000000000, 0.000000000000000000, 4.000000000000000000 ) ) ;
#61 = CC_DESIGN_APPROVAL ( #58, ( #249 ) ) ;
#62 = DIRECTION ( 'NONE',  ( -0.000000000000000000, -0.000000000000000000, -1.000000000000000000 ) ) ;
#63 = CARTESIAN_POINT ( 'NONE',  ( 0.000000000000000000, 0.000000000000000000, 4.000000000000000000 ) ) ;
#64 = CC_DESIGN_APPROVAL ( #233, ( #253 ) ) ;
#65 = EDGE_CURVE ( 'NONE', #191, #5, #107, .T. ) ;
#66 =( LENGTH_UNIT ( ) NAMED_UNIT ( * ) SI_UNIT ( .MILLI., .METRE. ) );
#67 = DIRECTION ( 'NONE',  ( 0.000000000000000000, 0.000000000000000000, 1.000000000000000000 ) ) ;
#68 = DIRECTION ( 'NONE',  ( 1.000000000000000000, 0.000000000000000000, 0.000000000000000000 ) ) ;
#69 = ORIENTED_EDGE ( 'NONE', *, *, #120, .F. ) ;
#70 = DATE_TIME_ROLE ( 'creation_date' ) ;
#71 = CC_DESIGN_APPROVAL ( #28, ( #78 ) ) ;
#72 = ORIENTED_EDGE ( 'NONE', *, *, #93, .F. ) ;
#73 = DIRECTION ( 'NONE',  ( -0.000000000000000000, -0.000000000000000000, -1.000000000000000000 ) ) ;
#74 = CALENDAR_DATE ( 2023, 13, 2 ) ;
#75 = CC_DESIGN_DATE_AND_TIME_ASSIGNMENT ( #52, #183, ( #249 ) ) ;
#76 = APPROVAL_PERSON_ORGANIZATION ( #140, #28, #87 ) ;
#77 = FACE_OUTER_BOUND ( 'NONE', #201, .T. ) ;
#78 = PRODUCT_DEFINITION ( 'NEZNÁMÝ', '', #253, #37 ) ;
#79 = DIRECTION ( 'NONE',  ( 0.000000000000000000, 0.000000000000000000, 1.000000000000000000 ) ) ;
#80 = CARTESIAN_POINT ( 'NONE',  ( -4.000000000000000000, 0.000000000000000000, 4.000000000000000000 ) ) ;
#81 = DIRECTION ( 'NONE',  ( -0.000000000000000000, -0.000000000000000000, -1.000000000000000000 ) ) ;
#82 = CARTESIAN_POINT ( 'NONE',  ( 0.000000000000000000, 0.000000000000000000, 4.000000000000000000 ) ) ;
#83 = CIRCLE ( 'NONE', #195, 2.000000000000000000 ) ;
#84 = CARTESIAN_POINT ( 'NONE',  ( 0.000000000000000000, 0.000000000000000000, 160.0000000000000000 ) ) ;
#85 = MECHANICAL_CONTEXT ( 'NONE', #232, 'mechanical' ) ;
#86 = LOCAL_TIME ( 17, 37, 19.00000000000000000, #246 ) ;
#87 = APPROVAL_ROLE ( '' ) ;
#88 = EDGE_LOOP ( 'NONE', ( #236, #51, #217, #72 ) ) ;
#89 = APPROVAL_STATUS ( 'not_yet_approved' ) ;
#90 = ORIENTED_EDGE ( 'NONE', *, *, #22, .F. ) ;
#91 = CALENDAR_DATE ( 2023, 13, 2 ) ;
#92 = PERSON_AND_ORGANIZATION ( #116, #111 ) ;
#93 = EDGE_CURVE ( 'NONE', #39, #29, #175, .T. ) ;
#94 = CIRCLE ( 'NONE', #32, 4.000000000000000000 ) ;
#95 = LINE ( 'NONE', #80, #138 ) ;
#96 = ORIENTED_EDGE ( 'NONE', *, *, #142, .F. ) ;
#97 = DIRECTION ( 'NONE',  ( 0.000000000000000000, 0.000000000000000000, 1.000000000000000000 ) ) ;
#98 = CC_DESIGN_PERSON_AND_ORGANIZATION_ASSIGNMENT ( #167, #180, ( #78 ) ) ;
#99 = ORIENTED_EDGE ( 'NONE', *, *, #65, .F. ) ;
#100 = ORIENTED_EDGE ( 'NONE', *, *, #224, .F. ) ;
#101 = FACE_OUTER_BOUND ( 'NONE', #88, .T. ) ;
#102 = DIRECTION ( 'NONE',  ( 1.000000000000000000, 0.000000000000000000, 0.000000000000000000 ) ) ;
#103 = PERSON_AND_ORGANIZATION_ROLE ( 'classification_officer' ) ;
#104 = APPROVAL_DATE_TIME ( #126, #58 ) ;
#105 = VERTEX_POINT ( 'NONE', #41 ) ;
#106 = CALENDAR_DATE ( 2023, 13, 2 ) ;
#107 = CIRCLE ( 'NONE', #235, 4.000000000000000000 ) ;
#108 = APPROVAL_PERSON_ORGANIZATION ( #166, #233, #147 ) ;
#109 = DIRECTION ( 'NONE',  ( -0.000000000000000000, -0.000000000000000000, -1.000000000000000000 ) ) ;
#110 = AXIS2_PLACEMENT_3D ( 'NONE', #128, #73, #53 ) ;
#111 = ORGANIZATION ( 'NEURÈENÝ', 'NEURÈENÝ', '' ) ;
#112 = CARTESIAN_POINT ( 'NONE',  ( 0.000000000000000000, 0.000000000000000000, 0.000000000000000000 ) ) ;
#113 = DIRECTION ( 'NONE',  ( 1.000000000000000000, 0.000000000000000000, 0.000000000000000000 ) ) ;
#114 = DIRECTION ( 'NONE',  ( 1.000000000000000000, 0.000000000000000000, -0.000000000000000000 ) ) ;
#115 = CARTESIAN_POINT ( 'NONE',  ( -4.000000000000000000, 0.000000000000000000, 0.000000000000000000 ) ) ;
#116 = PERSON ( 'NEURÈENÝ', 'NEURÈENÝ', 'NEURÈENÝ', ('NEURÈENÝ'), ('NEURÈENÝ'), ('NEURÈENÝ') ) ;
#117 = CARTESIAN_POINT ( 'NONE',  ( 4.000000000000000000, 4.898587196589412829E-16, 4.000000000000000000 ) ) ;
#118 = APPLICATION_PROTOCOL_DEFINITION ( 'international standard', 'config_control_design', 1994, #232 ) ;
#119 = AXIS2_PLACEMENT_3D ( 'NONE', #24, #145, #123 ) ;
#120 = EDGE_CURVE ( 'NONE', #5, #18, #36, .T. ) ;
#121 = CARTESIAN_POINT ( 'NONE',  ( 0.000000000000000000, 0.000000000000000000, 160.0000000000000000 ) ) ;
#122 = ORIENTED_EDGE ( 'NONE', *, *, #254, .T. ) ;
#123 = DIRECTION ( 'NONE',  ( -1.000000000000000000, 0.000000000000000000, 0.000000000000000000 ) ) ;
#124 = CIRCLE ( 'NONE', #33, 2.000000000000000000 ) ;
#125 = AXIS2_PLACEMENT_3D ( 'NONE', #162, #161, #68 ) ;
#126 = DATE_AND_TIME ( #49, #86 ) ;
#127 = APPROVAL_DATE_TIME ( #220, #233 ) ;
#128 = CARTESIAN_POINT ( 'NONE',  ( 0.000000000000000000, 0.000000000000000000, 4.000000000000000000 ) ) ;
#129 = VECTOR ( 'NONE', #207, 1000.000000000000000 ) ;
#130 = FACE_OUTER_BOUND ( 'NONE', #165, .T. ) ;
#131 = CARTESIAN_POINT ( 'NONE',  ( 4.000000000000000000, 4.898587196589412829E-16, 0.000000000000000000 ) ) ;
#132 = AXIS2_PLACEMENT_3D ( 'NONE', #210, #67, #141 ) ;
#133 = DIRECTION ( 'NONE',  ( 0.000000000000000000, 0.000000000000000000, 1.000000000000000000 ) ) ;
#134 = CC_DESIGN_PERSON_AND_ORGANIZATION_ASSIGNMENT ( #200, #7, ( #253 ) ) ;
#135 = DIRECTION ( 'NONE',  ( 0.000000000000000000, 0.000000000000000000, 1.000000000000000000 ) ) ;
#136 = PRODUCT_DEFINITION_SHAPE ( 'NONE', 'NONE',  #78 ) ;
#137 = EDGE_LOOP ( 'NONE', ( #240, #169 ) ) ;
#138 = VECTOR ( 'NONE', #62, 1000.000000000000000 ) ;
#139 = PLANE ( 'NONE',  #158 ) ;
#140 = PERSON_AND_ORGANIZATION ( #116, #111 ) ;
#141 = DIRECTION ( 'NONE',  ( 1.000000000000000000, 0.000000000000000000, 0.000000000000000000 ) ) ;
#142 = EDGE_CURVE ( 'NONE', #5, #191, #94, .T. ) ;
#143 =( GEOMETRIC_REPRESENTATION_CONTEXT ( 3 ) GLOBAL_UNCERTAINTY_ASSIGNED_CONTEXT ( ( #59 ) ) GLOBAL_UNIT_ASSIGNED_CONTEXT ( ( #66, #238, #231 ) ) REPRESENTATION_CONTEXT ( 'NONE', 'WORKASPACE' ) );
#144 = ORIENTED_EDGE ( 'NONE', *, *, #43, .T. ) ;
#145 = DIRECTION ( 'NONE',  ( -0.000000000000000000, -0.000000000000000000, -1.000000000000000000 ) ) ;
#146 = ORIENTED_EDGE ( 'NONE', *, *, #160, .F. ) ;
#147 = APPROVAL_ROLE ( '' ) ;
#148 = LOCAL_TIME ( 17, 37, 19.00000000000000000, #151 ) ;
#149 = EDGE_LOOP ( 'NONE', ( #69, #99, #20, #199 ) ) ;
#150 = COORDINATED_UNIVERSAL_TIME_OFFSET ( 1, 0, .AHEAD. ) ;
#151 = COORDINATED_UNIVERSAL_TIME_OFFSET ( 1, 0, .AHEAD. ) ;
#152 = DIRECTION ( 'NONE',  ( 1.000000000000000000, 0.000000000000000000, 0.000000000000000000 ) ) ;
#153 = CARTESIAN_POINT ( 'NONE',  ( 0.000000000000000000, 0.000000000000000000, 4.000000000000000000 ) ) ;
#154 = CC_DESIGN_SECURITY_CLASSIFICATION ( #249, ( #253 ) ) ;
#155 = ORIENTED_EDGE ( 'NONE', *, *, #22, .T. ) ;
#156 = DIRECTION ( 'NONE',  ( -1.000000000000000000, 0.000000000000000000, 0.000000000000000000 ) ) ;
#157 = EDGE_CURVE ( 'NONE', #191, #47, #95, .T. ) ;
#158 = AXIS2_PLACEMENT_3D ( 'NONE', #174, #133, #114 ) ;
#159 = DIRECTION ( 'NONE',  ( -0.000000000000000000, -0.000000000000000000, -1.000000000000000000 ) ) ;
#160 = EDGE_CURVE ( 'NONE', #211, #29, #11, .T. ) ;
#161 = DIRECTION ( 'NONE',  ( 0.000000000000000000, 0.000000000000000000, 1.000000000000000000 ) ) ;
#162 = CARTESIAN_POINT ( 'NONE',  ( 0.000000000000000000, 0.000000000000000000, 0.000000000000000000 ) ) ;
#163 = CYLINDRICAL_SURFACE ( 'NONE', #119, 2.000000000000000000 ) ;
#164 = CC_DESIGN_PERSON_AND_ORGANIZATION_ASSIGNMENT ( #215, #103, ( #249 ) ) ;
#165 = EDGE_LOOP ( 'NONE', ( #100, #56, #50, #228 ) ) ;
#166 = PERSON_AND_ORGANIZATION ( #116, #111 ) ;
#167 = PERSON_AND_ORGANIZATION ( #116, #111 ) ;
#168 = CIRCLE ( 'NONE', #6, 2.000000000000000000 ) ;
#169 = ORIENTED_EDGE ( 'NONE', *, *, #142, .T. ) ;
#170 = ADVANCED_FACE ( 'NONE', ( #77 ), #139, .F. ) ;
#171 = LOCAL_TIME ( 17, 37, 19.00000000000000000, #244 ) ;
#172 = DIRECTION ( 'NONE',  ( -0.000000000000000000, -0.000000000000000000, -1.000000000000000000 ) ) ;
#173 = CARTESIAN_POINT ( 'NONE',  ( -2.000000000000000000, 0.000000000000000000, 160.0000000000000000 ) ) ;
#174 = CARTESIAN_POINT ( 'NONE',  ( 0.000000000000000000, 0.000000000000000000, 0.000000000000000000 ) ) ;
#175 = LINE ( 'NONE', #247, #129 ) ;
#176 = LOCAL_TIME ( 17, 37, 19.00000000000000000, #196 ) ;
#177 = DIRECTION ( 'NONE',  ( 0.000000000000000000, 0.000000000000000000, 1.000000000000000000 ) ) ;
#178 = DIRECTION ( 'NONE',  ( 0.000000000000000000, 0.000000000000000000, 1.000000000000000000 ) ) ;
#179 = CC_DESIGN_PERSON_AND_ORGANIZATION_ASSIGNMENT ( #181, #3, ( #253 ) ) ;
#180 = PERSON_AND_ORGANIZATION_ROLE ( 'creator' ) ;
#181 = PERSON_AND_ORGANIZATION ( #116, #111 ) ;
#182 = ADVANCED_FACE ( 'NONE', ( #34 ), #250, .T. ) ;
#183 = DATE_TIME_ROLE ( 'classification_date' ) ;
#184 = CARTESIAN_POINT ( 'NONE',  ( 0.000000000000000000, 0.000000000000000000, 160.0000000000000000 ) ) ;
#185 = EDGE_LOOP ( 'NONE', ( #144, #122 ) ) ;
#186 = CYLINDRICAL_SURFACE ( 'NONE', #110, 4.000000000000000000 ) ;
#187 = VECTOR ( 'NONE', #159, 1000.000000000000000 ) ;
#188 = CARTESIAN_POINT ( 'NONE',  ( -2.000000000000000000, 0.000000000000000000, 4.000000000000000000 ) ) ;
#189 = CARTESIAN_POINT ( 'NONE',  ( 0.000000000000000000, 0.000000000000000000, 4.000000000000000000 ) ) ;
#190 = DIRECTION ( 'NONE',  ( 1.000000000000000000, 0.000000000000000000, 0.000000000000000000 ) ) ;
#191 = VERTEX_POINT ( 'NONE', #14 ) ;
#192 = DIRECTION ( 'NONE',  ( 1.000000000000000000, 0.000000000000000000, 0.000000000000000000 ) ) ;
#193 = ADVANCED_FACE ( 'NONE', ( #229, #205 ), #209, .T. ) ;
#194 = FACE_OUTER_BOUND ( 'NONE', #185, .T. ) ;
#195 = AXIS2_PLACEMENT_3D ( 'NONE', #121, #178, #102 ) ;
#196 = COORDINATED_UNIVERSAL_TIME_OFFSET ( 1, 0, .AHEAD. ) ;
#197 = DIRECTION ( 'NONE',  ( -1.000000000000000000, 0.000000000000000000, 0.000000000000000000 ) ) ;
#198 = ADVANCED_FACE ( 'NONE', ( #101 ), #163, .T. ) ;
#199 = ORIENTED_EDGE ( 'NONE', *, *, #214, .T. ) ;
#200 = PERSON_AND_ORGANIZATION ( #116, #111 ) ;
#201 = EDGE_LOOP ( 'NONE', ( #9, #90 ) ) ;
#202 = AXIS2_PLACEMENT_3D ( 'NONE', #189, #81, #156 ) ;
#203 = CYLINDRICAL_SURFACE ( 'NONE', #241, 2.000000000000000000 ) ;
#204 = DIRECTION ( 'NONE',  ( 1.000000000000000000, 0.000000000000000000, 0.000000000000000000 ) ) ;
#205 = FACE_OUTER_BOUND ( 'NONE', #137, .T. ) ;
#206 = ADVANCED_FACE ( 'NONE', ( #194 ), #251, .T. ) ;
#207 = DIRECTION ( 'NONE',  ( -0.000000000000000000, -0.000000000000000000, -1.000000000000000000 ) ) ;
#208 = PRODUCT_RELATED_PRODUCT_CATEGORY ( 'detail', '', ( #40 ) ) ;
#209 = PLANE ( 'NONE',  #16 ) ;
#210 = CARTESIAN_POINT ( 'NONE',  ( 0.000000000000000000, 0.000000000000000000, 0.000000000000000000 ) ) ;
#211 = VERTEX_POINT ( 'NONE', #234 ) ;
#212 = CARTESIAN_POINT ( 'NONE',  ( 2.000000000000000000, 2.449293598294706414E-16, 160.0000000000000000 ) ) ;
#213 = ADVANCED_BREP_SHAPE_REPRESENTATION ( 'e28c', ( #237, #132 ), #143 ) ;
#214 = EDGE_CURVE ( 'NONE', #47, #18, #245, .T. ) ;
#215 = PERSON_AND_ORGANIZATION ( #116, #111 ) ;
#216 = APPROVAL_STATUS ( 'not_yet_approved' ) ;
#217 = ORIENTED_EDGE ( 'NONE', *, *, #160, .T. ) ;
#218 = DATE_AND_TIME ( #48, #176 ) ;
#219 = EDGE_LOOP ( 'NONE', ( #25, #146 ) ) ;
#220 = DATE_AND_TIME ( #91, #148 ) ;
#221 = APPROVAL_ROLE ( '' ) ;
#222 = CC_DESIGN_DATE_AND_TIME_ASSIGNMENT ( #218, #70, ( #78 ) ) ;
#223 = ORIENTED_EDGE ( 'NONE', *, *, #120, .T. ) ;
#224 = EDGE_CURVE ( 'NONE', #105, #211, #45, .T. ) ;
#225 = DIRECTION ( 'NONE',  ( 0.000000000000000000, 0.000000000000000000, 1.000000000000000000 ) ) ;
#226 = CARTESIAN_POINT ( 'NONE',  ( 0.000000000000000000, 0.000000000000000000, 160.0000000000000000 ) ) ;
#227 = DIRECTION ( 'NONE',  ( 0.000000000000000000, 0.000000000000000000, 1.000000000000000000 ) ) ;
#228 = ORIENTED_EDGE ( 'NONE', *, *, #54, .T. ) ;
#229 = FACE_BOUND ( 'NONE', #219, .T. ) ;
#230 = CIRCLE ( 'NONE', #252, 4.000000000000000000 ) ;
#231 =( NAMED_UNIT ( * ) SI_UNIT ( $, .STERADIAN. ) SOLID_ANGLE_UNIT ( ) );
#232 = APPLICATION_CONTEXT ( 'configuration controlled 3d designs of mechanical parts and assemblies' ) ;
#233 = APPROVAL ( #26, 'NEURÈENÝ' ) ;
#234 = CARTESIAN_POINT ( 'NONE',  ( 2.000000000000000000, 2.449293598294706414E-16, 4.000000000000000000 ) ) ;
#235 = AXIS2_PLACEMENT_3D ( 'NONE', #63, #135, #190 ) ;
#236 = ORIENTED_EDGE ( 'NONE', *, *, #254, .F. ) ;
#237 = MANIFOLD_SOLID_BREP ( 'Pøidat vysunutím3', #10 ) ;
#238 =( NAMED_UNIT ( * ) PLANE_ANGLE_UNIT ( ) SI_UNIT ( $, .RADIAN. ) );
#239 = CC_DESIGN_PERSON_AND_ORGANIZATION_ASSIGNMENT ( #21, #1, ( #40 ) ) ;
#240 = ORIENTED_EDGE ( 'NONE', *, *, #65, .T. ) ;
#241 = AXIS2_PLACEMENT_3D ( 'NONE', #184, #109, #197 ) ;
#242 = APPROVAL_DATE_TIME ( #4, #28 ) ;
#243 = EDGE_LOOP ( 'NONE', ( #96, #223, #155, #57 ) ) ;
#244 = COORDINATED_UNIVERSAL_TIME_OFFSET ( 1, 0, .AHEAD. ) ;
#245 = CIRCLE ( 'NONE', #125, 4.000000000000000000 ) ;
#246 = COORDINATED_UNIVERSAL_TIME_OFFSET ( 1, 0, .AHEAD. ) ;
#247 = CARTESIAN_POINT ( 'NONE',  ( -2.000000000000000000, 0.000000000000000000, 160.0000000000000000 ) ) ;
#248 = APPLICATION_CONTEXT ( 'configuration controlled 3d designs of mechanical parts and assemblies' ) ;
#249 = SECURITY_CLASSIFICATION ( '', '', #30 ) ;
#250 = CYLINDRICAL_SURFACE ( 'NONE', #202, 4.000000000000000000 ) ;
#251 = PLANE ( 'NONE',  #46 ) ;
#252 = AXIS2_PLACEMENT_3D ( 'NONE', #112, #38, #204 ) ;
#253 = PRODUCT_DEFINITION_FORMATION_WITH_SPECIFIED_SOURCE ( 'LIBOVOLNÝ', '', #40, .NOT_KNOWN. ) ;
#254 = EDGE_CURVE ( 'NONE', #105, #39, #83, .T. ) ;
#255 = DIRECTION ( 'NONE',  ( 1.000000000000000000, 0.000000000000000000, -0.000000000000000000 ) ) ;
ENDSEC;
END-ISO-10303-21;
