ISO-10303-21;
HEADER;
FILE_DESCRIPTION (( 'STEP AP203' ),
    '1' );
FILE_NAME ('6468.STEP',
    '2023-02-13T11:31:06',
    ( '' ),
    ( '' ),
    'SwSTEP 2.0',
    'SolidWorks 2019',
    '' );
FILE_SCHEMA (( 'CONFIG_CONTROL_DESIGN' ));
ENDSEC;

DATA;
#1 = EDGE_LOOP ( 'NONE', ( #123, #176, #110, #209 ) ) ;
#2 = ADVANCED_FACE ( 'NONE', ( #24 ), #196, .F. ) ;
#3 = SECURITY_CLASSIFICATION ( '', '', #85 ) ;
#4 = DATE_AND_TIME ( #199, #142 ) ;
#5 = CC_DESIGN_PERSON_AND_ORGANIZATION_ASSIGNMENT ( #83, #156, ( #57 ) ) ;
#6 = DIRECTION ( 'NONE',  ( -1.000000000000000000, 0.000000000000000000, 0.000000000000000000 ) ) ;
#7 = MANIFOLD_SOLID_BREP ( 'Pøidat vysunutím3', #155 ) ;
#8 = FACE_OUTER_BOUND ( 'NONE', #82, .T. ) ;
#9 = CC_DESIGN_DATE_AND_TIME_ASSIGNMENT ( #248, #232, ( #3 ) ) ;
#10 = CARTESIAN_POINT ( 'NONE',  ( 0.000000000000000000, 0.000000000000000000, 6.500000000000000000 ) ) ;
#11 = VERTEX_POINT ( 'NONE', #26 ) ;
#12 = PERSON_AND_ORGANIZATION ( #99, #51 ) ;
#13 = DIRECTION ( 'NONE',  ( -1.000000000000000000, 0.000000000000000000, 0.000000000000000000 ) ) ;
#14 = LOCAL_TIME ( 12, 31, 6.000000000000000000, #197 ) ;
#15 = FACE_OUTER_BOUND ( 'NONE', #154, .T. ) ;
#16 = CYLINDRICAL_SURFACE ( 'NONE', #30, 6.000000000000000888 ) ;
#17 = DIRECTION ( 'NONE',  ( 1.000000000000000000, 0.000000000000000000, 0.000000000000000000 ) ) ;
#18 = AXIS2_PLACEMENT_3D ( 'NONE', #38, #172, #210 ) ;
#19 = APPROVAL ( #65, 'NEURÈENÝ' ) ;
#20 = CARTESIAN_POINT ( 'NONE',  ( 0.000000000000000000, 0.000000000000000000, 630.0000000000000000 ) ) ;
#21 = ORIENTED_EDGE ( 'NONE', *, *, #231, .F. ) ;
#22 = ORIENTED_EDGE ( 'NONE', *, *, #190, .F. ) ;
#23 = DIRECTION ( 'NONE',  ( 1.000000000000000000, 0.000000000000000000, 0.000000000000000000 ) ) ;
#24 = FACE_OUTER_BOUND ( 'NONE', #225, .T. ) ;
#25 = PERSON_AND_ORGANIZATION ( #99, #51 ) ;
#26 = CARTESIAN_POINT ( 'NONE',  ( -6.000000000000000888, 0.000000000000000000, 630.0000000000000000 ) ) ;
#27 = CALENDAR_DATE ( 2023, 13, 2 ) ;
#28 = DATE_AND_TIME ( #64, #249 ) ;
#29 = PERSON_AND_ORGANIZATION ( #99, #51 ) ;
#30 = AXIS2_PLACEMENT_3D ( 'NONE', #253, #168, #235 ) ;
#31 = EDGE_CURVE ( 'NONE', #11, #234, #81, .T. ) ;
#32 = ORIENTED_EDGE ( 'NONE', *, *, #211, .T. ) ;
#33 = DIRECTION ( 'NONE',  ( 0.000000000000000000, 0.000000000000000000, 1.000000000000000000 ) ) ;
#34 = FACE_OUTER_BOUND ( 'NONE', #1, .T. ) ;
#35 = LINE ( 'NONE', #114, #226 ) ;
#36 = CARTESIAN_POINT ( 'NONE',  ( 0.000000000000000000, 0.000000000000000000, 630.0000000000000000 ) ) ;
#37 = CARTESIAN_POINT ( 'NONE',  ( -6.000000000000000888, 0.000000000000000000, 6.500000000000000000 ) ) ;
#38 = CARTESIAN_POINT ( 'NONE',  ( 0.000000000000000000, 0.000000000000000000, 630.0000000000000000 ) ) ;
#39 = APPROVAL_ROLE ( '' ) ;
#40 = FACE_OUTER_BOUND ( 'NONE', #95, .T. ) ;
#41 = ORIENTED_EDGE ( 'NONE', *, *, #158, .T. ) ;
#42 = MECHANICAL_CONTEXT ( 'NONE', #131, 'mechanical' ) ;
#43 = ORIENTED_EDGE ( 'NONE', *, *, #158, .F. ) ;
#44 = UNCERTAINTY_MEASURE_WITH_UNIT (LENGTH_MEASURE( 1.000000000000000082E-05 ), #152, 'distance_accuracy_value', 'NONE');
#45 = AXIS2_PLACEMENT_3D ( 'NONE', #76, #242, #145 ) ;
#46 = PRODUCT_RELATED_PRODUCT_CATEGORY ( 'detail', '', ( #229 ) ) ;
#47 = APPROVAL_PERSON_ORGANIZATION ( #12, #221, #112 ) ;
#48 = AXIS2_PLACEMENT_3D ( 'NONE', #98, #173, #169 ) ;
#49 = CARTESIAN_POINT ( 'NONE',  ( 0.000000000000000000, 0.000000000000000000, 6.500000000000000000 ) ) ;
#50 = ORIENTED_EDGE ( 'NONE', *, *, #31, .T. ) ;
#51 = ORGANIZATION ( 'NEURÈENÝ', 'NEURÈENÝ', '' ) ;
#52 = APPROVAL_DATE_TIME ( #167, #221 ) ;
#53 = CARTESIAN_POINT ( 'NONE',  ( 6.000000000000000888, 7.347880794884119736E-16, 630.0000000000000000 ) ) ;
#54 = CALENDAR_DATE ( 2023, 13, 2 ) ;
#55 = CARTESIAN_POINT ( 'NONE',  ( 6.000000000000000888, 7.347880794884119736E-16, 6.500000000000000000 ) ) ;
#56 = VERTEX_POINT ( 'NONE', #55 ) ;
#57 = PRODUCT_DEFINITION ( 'NEZNÁMÝ', '', #233, #125 ) ;
#58 = CARTESIAN_POINT ( 'NONE',  ( 9.000000000000000000, 1.102182119232617517E-15, 0.000000000000000000 ) ) ;
#59 = VERTEX_POINT ( 'NONE', #100 ) ;
#60 = ORIENTED_EDGE ( 'NONE', *, *, #111, .T. ) ;
#61 = CIRCLE ( 'NONE', #108, 6.000000000000000888 ) ;
#62 = ORIENTED_EDGE ( 'NONE', *, *, #73, .F. ) ;
#63 = CIRCLE ( 'NONE', #45, 9.000000000000000000 ) ;
#64 = CALENDAR_DATE ( 2023, 13, 2 ) ;
#65 = APPROVAL_STATUS ( 'not_yet_approved' ) ;
#66 = VECTOR ( 'NONE', #230, 1000.000000000000000 ) ;
#67 = PERSON_AND_ORGANIZATION ( #99, #51 ) ;
#68 = CC_DESIGN_PERSON_AND_ORGANIZATION_ASSIGNMENT ( #195, #237, ( #229 ) ) ;
#69 = FACE_BOUND ( 'NONE', #252, .T. ) ;
#70 = VERTEX_POINT ( 'NONE', #150 ) ;
#71 = AXIS2_PLACEMENT_3D ( 'NONE', #192, #153, #17 ) ;
#72 = CARTESIAN_POINT ( 'NONE',  ( -9.000000000000000000, 0.000000000000000000, 6.500000000000000000 ) ) ;
#73 = EDGE_CURVE ( 'NONE', #88, #140, #126, .T. ) ;
#74 = DIRECTION ( 'NONE',  ( 1.000000000000000000, 0.000000000000000000, 0.000000000000000000 ) ) ;
#75 = PERSON_AND_ORGANIZATION_ROLE ( 'classification_officer' ) ;
#76 = CARTESIAN_POINT ( 'NONE',  ( 0.000000000000000000, 0.000000000000000000, 6.500000000000000000 ) ) ;
#77 =( GEOMETRIC_REPRESENTATION_CONTEXT ( 3 ) GLOBAL_UNCERTAINTY_ASSIGNED_CONTEXT ( ( #44 ) ) GLOBAL_UNIT_ASSIGNED_CONTEXT ( ( #152, #92, #175 ) ) REPRESENTATION_CONTEXT ( 'NONE', 'WORKASPACE' ) );
#78 = VERTEX_POINT ( 'NONE', #236 ) ;
#79 = DIRECTION ( 'NONE',  ( 0.000000000000000000, 0.000000000000000000, 1.000000000000000000 ) ) ;
#80 = APPLICATION_PROTOCOL_DEFINITION ( 'international standard', 'config_control_design', 1994, #134 ) ;
#81 = LINE ( 'NONE', #254, #143 ) ;
#82 = EDGE_LOOP ( 'NONE', ( #22, #184, #191, #174 ) ) ;
#83 = PERSON_AND_ORGANIZATION ( #99, #51 ) ;
#84 = FACE_OUTER_BOUND ( 'NONE', #139, .T. ) ;
#85 = SECURITY_CLASSIFICATION_LEVEL ( 'unclassified' ) ;
#86 = CARTESIAN_POINT ( 'NONE',  ( 0.000000000000000000, 0.000000000000000000, 6.500000000000000000 ) ) ;
#87 = CARTESIAN_POINT ( 'NONE',  ( -9.000000000000000000, 0.000000000000000000, 0.000000000000000000 ) ) ;
#88 = VERTEX_POINT ( 'NONE', #58 ) ;
#89 = APPROVAL_PERSON_ORGANIZATION ( #25, #101, #39 ) ;
#90 = DIRECTION ( 'NONE',  ( 1.000000000000000000, 0.000000000000000000, 0.000000000000000000 ) ) ;
#91 = CC_DESIGN_APPROVAL ( #101, ( #57 ) ) ;
#92 =( NAMED_UNIT ( * ) PLANE_ANGLE_UNIT ( ) SI_UNIT ( $, .RADIAN. ) );
#93 = EDGE_CURVE ( 'NONE', #140, #88, #208, .T. ) ;
#94 = VECTOR ( 'NONE', #206, 1000.000000000000000 ) ;
#95 = EDGE_LOOP ( 'NONE', ( #43, #21, #50, #228 ) ) ;
#96 = APPROVAL_DATE_TIME ( #124, #101 ) ;
#97 = DIRECTION ( 'NONE',  ( 0.000000000000000000, 0.000000000000000000, 1.000000000000000000 ) ) ;
#98 = CARTESIAN_POINT ( 'NONE',  ( 0.000000000000000000, 0.000000000000000000, 0.000000000000000000 ) ) ;
#99 = PERSON ( 'NEURÈENÝ', 'NEURÈENÝ', 'NEURÈENÝ', ('NEURÈENÝ'), ('NEURÈENÝ'), ('NEURÈENÝ') ) ;
#100 = CARTESIAN_POINT ( 'NONE',  ( 9.000000000000000000, 1.102182119232617517E-15, 6.500000000000000000 ) ) ;
#101 = APPROVAL ( #214, 'NEURÈENÝ' ) ;
#102 = DATE_TIME_ROLE ( 'creation_date' ) ;
#103 = APPROVAL_ROLE ( '' ) ;
#104 = AXIS2_PLACEMENT_3D ( 'NONE', #36, #115, #6 ) ;
#105 = ADVANCED_BREP_SHAPE_REPRESENTATION ( '6468', ( #7, #163 ), #77 ) ;
#106 = PERSON_AND_ORGANIZATION_ROLE ( 'creator' ) ;
#107 = PLANE ( 'NONE',  #244 ) ;
#108 = AXIS2_PLACEMENT_3D ( 'NONE', #20, #97, #90 ) ;
#109 = DIRECTION ( 'NONE',  ( -1.000000000000000000, 0.000000000000000000, 0.000000000000000000 ) ) ;
#110 = ORIENTED_EDGE ( 'NONE', *, *, #73, .T. ) ;
#111 = EDGE_CURVE ( 'NONE', #78, #59, #171, .T. ) ;
#112 = APPROVAL_ROLE ( '' ) ;
#113 = PRODUCT_DEFINITION_SHAPE ( 'NONE', 'NONE',  #57 ) ;
#114 = CARTESIAN_POINT ( 'NONE',  ( 9.000000000000000000, 1.102182119232617517E-15, 6.500000000000000000 ) ) ;
#115 = DIRECTION ( 'NONE',  ( -0.000000000000000000, -0.000000000000000000, -1.000000000000000000 ) ) ;
#116 = CALENDAR_DATE ( 2023, 13, 2 ) ;
#117 = ORIENTED_EDGE ( 'NONE', *, *, #93, .F. ) ;
#118 = DIRECTION ( 'NONE',  ( -0.000000000000000000, -0.000000000000000000, -1.000000000000000000 ) ) ;
#119 = ADVANCED_FACE ( 'NONE', ( #69, #161 ), #107, .T. ) ;
#120 = DIRECTION ( 'NONE',  ( 1.000000000000000000, 0.000000000000000000, 0.000000000000000000 ) ) ;
#121 = CARTESIAN_POINT ( 'NONE',  ( 0.000000000000000000, 0.000000000000000000, 6.500000000000000000 ) ) ;
#122 = ADVANCED_FACE ( 'NONE', ( #84 ), #247, .T. ) ;
#123 = ORIENTED_EDGE ( 'NONE', *, *, #144, .F. ) ;
#124 = DATE_AND_TIME ( #27, #14 ) ;
#125 = DESIGN_CONTEXT ( 'detailed design', #134, 'design' ) ;
#126 = CIRCLE ( 'NONE', #71, 9.000000000000000000 ) ;
#127 = LOCAL_TIME ( 12, 31, 6.000000000000000000, #160 ) ;
#128 = DIRECTION ( 'NONE',  ( 1.000000000000000000, 0.000000000000000000, 0.000000000000000000 ) ) ;
#129 = CC_DESIGN_APPROVAL ( #19, ( #233 ) ) ;
#130 = AXIS2_PLACEMENT_3D ( 'NONE', #147, #132, #109 ) ;
#131 = APPLICATION_CONTEXT ( 'configuration controlled 3d designs of mechanical parts and assemblies' ) ;
#132 = DIRECTION ( 'NONE',  ( -0.000000000000000000, -0.000000000000000000, -1.000000000000000000 ) ) ;
#133 = APPROVAL_STATUS ( 'not_yet_approved' ) ;
#134 = APPLICATION_CONTEXT ( 'configuration controlled 3d designs of mechanical parts and assemblies' ) ;
#135 = DIRECTION ( 'NONE',  ( 0.000000000000000000, 0.000000000000000000, 1.000000000000000000 ) ) ;
#136 = PERSON_AND_ORGANIZATION ( #99, #51 ) ;
#137 = ORIENTED_EDGE ( 'NONE', *, *, #144, .T. ) ;
#138 = CIRCLE ( 'NONE', #212, 6.000000000000000888 ) ;
#139 = EDGE_LOOP ( 'NONE', ( #218, #41, #32, #215 ) ) ;
#140 = VERTEX_POINT ( 'NONE', #87 ) ;
#141 = EDGE_LOOP ( 'NONE', ( #60, #137 ) ) ;
#142 = LOCAL_TIME ( 12, 31, 6.000000000000000000, #178 ) ;
#143 = VECTOR ( 'NONE', #118, 1000.000000000000000 ) ;
#144 = EDGE_CURVE ( 'NONE', #59, #78, #63, .T. ) ;
#145 = DIRECTION ( 'NONE',  ( 1.000000000000000000, 0.000000000000000000, 0.000000000000000000 ) ) ;
#146 = DIRECTION ( 'NONE',  ( 1.000000000000000000, 0.000000000000000000, 0.000000000000000000 ) ) ;
#147 = CARTESIAN_POINT ( 'NONE',  ( 0.000000000000000000, 0.000000000000000000, 6.500000000000000000 ) ) ;
#148 = ADVANCED_FACE ( 'NONE', ( #34 ), #223, .T. ) ;
#149 = DIRECTION ( 'NONE',  ( 1.000000000000000000, 0.000000000000000000, 0.000000000000000000 ) ) ;
#150 = CARTESIAN_POINT ( 'NONE',  ( 6.000000000000000888, 7.347880794884119736E-16, 630.0000000000000000 ) ) ;
#151 = AXIS2_PLACEMENT_3D ( 'NONE', #49, #33, #128 ) ;
#152 =( LENGTH_UNIT ( ) NAMED_UNIT ( * ) SI_UNIT ( .MILLI., .METRE. ) );
#153 = DIRECTION ( 'NONE',  ( 0.000000000000000000, 0.000000000000000000, 1.000000000000000000 ) ) ;
#154 = EDGE_LOOP ( 'NONE', ( #243, #255 ) ) ;
#155 = CLOSED_SHELL ( 'NONE', ( #122, #148, #177, #119, #2, #240, #203 ) ) ;
#156 = PERSON_AND_ORGANIZATION_ROLE ( 'creator' ) ;
#157 = CIRCLE ( 'NONE', #182, 6.000000000000000888 ) ;
#158 = EDGE_CURVE ( 'NONE', #70, #56, #201, .T. ) ;
#159 = CYLINDRICAL_SURFACE ( 'NONE', #130, 9.000000000000000000 ) ;
#160 = COORDINATED_UNIVERSAL_TIME_OFFSET ( 1, 0, .AHEAD. ) ;
#161 = FACE_OUTER_BOUND ( 'NONE', #141, .T. ) ;
#162 = ORIENTED_EDGE ( 'NONE', *, *, #219, .F. ) ;
#163 = AXIS2_PLACEMENT_3D ( 'NONE', #170, #251, #120 ) ;
#164 = CC_DESIGN_PERSON_AND_ORGANIZATION_ASSIGNMENT ( #67, #181, ( #233 ) ) ;
#165 = PLANE ( 'NONE',  #18 ) ;
#166 = AXIS2_PLACEMENT_3D ( 'NONE', #250, #79, #146 ) ;
#167 = DATE_AND_TIME ( #54, #193 ) ;
#168 = DIRECTION ( 'NONE',  ( -0.000000000000000000, -0.000000000000000000, -1.000000000000000000 ) ) ;
#169 = DIRECTION ( 'NONE',  ( 1.000000000000000000, 0.000000000000000000, -0.000000000000000000 ) ) ;
#170 = CARTESIAN_POINT ( 'NONE',  ( 0.000000000000000000, 0.000000000000000000, 0.000000000000000000 ) ) ;
#171 = CIRCLE ( 'NONE', #151, 9.000000000000000000 ) ;
#172 = DIRECTION ( 'NONE',  ( 0.000000000000000000, 0.000000000000000000, 1.000000000000000000 ) ) ;
#173 = DIRECTION ( 'NONE',  ( 0.000000000000000000, 0.000000000000000000, 1.000000000000000000 ) ) ;
#174 = ORIENTED_EDGE ( 'NONE', *, *, #93, .T. ) ;
#175 =( NAMED_UNIT ( * ) SI_UNIT ( $, .STERADIAN. ) SOLID_ANGLE_UNIT ( ) );
#176 = ORIENTED_EDGE ( 'NONE', *, *, #190, .T. ) ;
#177 = ADVANCED_FACE ( 'NONE', ( #8 ), #159, .T. ) ;
#178 = COORDINATED_UNIVERSAL_TIME_OFFSET ( 1, 0, .AHEAD. ) ;
#179 = CIRCLE ( 'NONE', #220, 6.000000000000000888 ) ;
#180 = EDGE_CURVE ( 'NONE', #78, #140, #245, .T. ) ;
#181 = PERSON_AND_ORGANIZATION_ROLE ( 'design_supplier' ) ;
#182 = AXIS2_PLACEMENT_3D ( 'NONE', #239, #135, #23 ) ;
#183 = DIRECTION ( 'NONE',  ( 1.000000000000000000, 0.000000000000000000, -0.000000000000000000 ) ) ;
#184 = ORIENTED_EDGE ( 'NONE', *, *, #111, .F. ) ;
#185 = AXIS2_PLACEMENT_3D ( 'NONE', #86, #187, #13 ) ;
#186 = EDGE_CURVE ( 'NONE', #70, #11, #138, .T. ) ;
#187 = DIRECTION ( 'NONE',  ( -0.000000000000000000, -0.000000000000000000, -1.000000000000000000 ) ) ;
#188 = CC_DESIGN_SECURITY_CLASSIFICATION ( #3, ( #233 ) ) ;
#189 = DIRECTION ( 'NONE',  ( -0.000000000000000000, -0.000000000000000000, -1.000000000000000000 ) ) ;
#190 = EDGE_CURVE ( 'NONE', #59, #88, #35, .T. ) ;
#191 = ORIENTED_EDGE ( 'NONE', *, *, #180, .T. ) ;
#192 = CARTESIAN_POINT ( 'NONE',  ( 0.000000000000000000, 0.000000000000000000, 0.000000000000000000 ) ) ;
#193 = LOCAL_TIME ( 12, 31, 6.000000000000000000, #205 ) ;
#194 = DIRECTION ( 'NONE',  ( 0.000000000000000000, 0.000000000000000000, 1.000000000000000000 ) ) ;
#195 = PERSON_AND_ORGANIZATION ( #99, #51 ) ;
#196 = PLANE ( 'NONE',  #48 ) ;
#197 = COORDINATED_UNIVERSAL_TIME_OFFSET ( 1, 0, .AHEAD. ) ;
#198 = COORDINATED_UNIVERSAL_TIME_OFFSET ( 1, 0, .AHEAD. ) ;
#199 = CALENDAR_DATE ( 2023, 13, 2 ) ;
#200 = APPROVAL_DATE_TIME ( #4, #19 ) ;
#201 = LINE ( 'NONE', #53, #66 ) ;
#202 = CC_DESIGN_APPROVAL ( #221, ( #3 ) ) ;
#203 = ADVANCED_FACE ( 'NONE', ( #15 ), #165, .T. ) ;
#204 = DIRECTION ( 'NONE',  ( 0.000000000000000000, 0.000000000000000000, 1.000000000000000000 ) ) ;
#205 = COORDINATED_UNIVERSAL_TIME_OFFSET ( 1, 0, .AHEAD. ) ;
#206 = DIRECTION ( 'NONE',  ( -0.000000000000000000, -0.000000000000000000, -1.000000000000000000 ) ) ;
#207 = SHAPE_DEFINITION_REPRESENTATION ( #113, #105 ) ;
#208 = CIRCLE ( 'NONE', #166, 9.000000000000000000 ) ;
#209 = ORIENTED_EDGE ( 'NONE', *, *, #180, .F. ) ;
#210 = DIRECTION ( 'NONE',  ( 1.000000000000000000, 0.000000000000000000, -0.000000000000000000 ) ) ;
#211 = EDGE_CURVE ( 'NONE', #56, #234, #179, .T. ) ;
#212 = AXIS2_PLACEMENT_3D ( 'NONE', #246, #224, #74 ) ;
#213 = CC_DESIGN_DATE_AND_TIME_ASSIGNMENT ( #28, #102, ( #57 ) ) ;
#214 = APPROVAL_STATUS ( 'not_yet_approved' ) ;
#215 = ORIENTED_EDGE ( 'NONE', *, *, #31, .F. ) ;
#216 = ORIENTED_EDGE ( 'NONE', *, *, #211, .F. ) ;
#217 = APPLICATION_PROTOCOL_DEFINITION ( 'international standard', 'config_control_design', 1994, #131 ) ;
#218 = ORIENTED_EDGE ( 'NONE', *, *, #186, .F. ) ;
#219 = EDGE_CURVE ( 'NONE', #234, #56, #157, .T. ) ;
#220 = AXIS2_PLACEMENT_3D ( 'NONE', #121, #194, #149 ) ;
#221 = APPROVAL ( #133, 'NEURÈENÝ' ) ;
#222 = CC_DESIGN_PERSON_AND_ORGANIZATION_ASSIGNMENT ( #241, #106, ( #233 ) ) ;
#223 = CYLINDRICAL_SURFACE ( 'NONE', #185, 9.000000000000000000 ) ;
#224 = DIRECTION ( 'NONE',  ( 0.000000000000000000, 0.000000000000000000, 1.000000000000000000 ) ) ;
#225 = EDGE_LOOP ( 'NONE', ( #117, #62 ) ) ;
#226 = VECTOR ( 'NONE', #189, 1000.000000000000000 ) ;
#227 = CC_DESIGN_PERSON_AND_ORGANIZATION_ASSIGNMENT ( #136, #75, ( #3 ) ) ;
#228 = ORIENTED_EDGE ( 'NONE', *, *, #219, .T. ) ;
#229 = PRODUCT ( '6468', '6468', '', ( #42 ) ) ;
#230 = DIRECTION ( 'NONE',  ( -0.000000000000000000, -0.000000000000000000, -1.000000000000000000 ) ) ;
#231 = EDGE_CURVE ( 'NONE', #11, #70, #61, .T. ) ;
#232 = DATE_TIME_ROLE ( 'classification_date' ) ;
#233 = PRODUCT_DEFINITION_FORMATION_WITH_SPECIFIED_SOURCE ( 'LIBOVOLNÝ', '', #229, .NOT_KNOWN. ) ;
#234 = VERTEX_POINT ( 'NONE', #37 ) ;
#235 = DIRECTION ( 'NONE',  ( -1.000000000000000000, 0.000000000000000000, 0.000000000000000000 ) ) ;
#236 = CARTESIAN_POINT ( 'NONE',  ( -9.000000000000000000, 0.000000000000000000, 6.500000000000000000 ) ) ;
#237 = PERSON_AND_ORGANIZATION_ROLE ( 'design_owner' ) ;
#238 = APPROVAL_PERSON_ORGANIZATION ( #29, #19, #103 ) ;
#239 = CARTESIAN_POINT ( 'NONE',  ( 0.000000000000000000, 0.000000000000000000, 6.500000000000000000 ) ) ;
#240 = ADVANCED_FACE ( 'NONE', ( #40 ), #16, .T. ) ;
#241 = PERSON_AND_ORGANIZATION ( #99, #51 ) ;
#242 = DIRECTION ( 'NONE',  ( 0.000000000000000000, 0.000000000000000000, 1.000000000000000000 ) ) ;
#243 = ORIENTED_EDGE ( 'NONE', *, *, #231, .T. ) ;
#244 = AXIS2_PLACEMENT_3D ( 'NONE', #10, #204, #183 ) ;
#245 = LINE ( 'NONE', #72, #94 ) ;
#246 = CARTESIAN_POINT ( 'NONE',  ( 0.000000000000000000, 0.000000000000000000, 630.0000000000000000 ) ) ;
#247 = CYLINDRICAL_SURFACE ( 'NONE', #104, 6.000000000000000888 ) ;
#248 = DATE_AND_TIME ( #116, #127 ) ;
#249 = LOCAL_TIME ( 12, 31, 6.000000000000000000, #198 ) ;
#250 = CARTESIAN_POINT ( 'NONE',  ( 0.000000000000000000, 0.000000000000000000, 0.000000000000000000 ) ) ;
#251 = DIRECTION ( 'NONE',  ( 0.000000000000000000, 0.000000000000000000, 1.000000000000000000 ) ) ;
#252 = EDGE_LOOP ( 'NONE', ( #162, #216 ) ) ;
#253 = CARTESIAN_POINT ( 'NONE',  ( 0.000000000000000000, 0.000000000000000000, 630.0000000000000000 ) ) ;
#254 = CARTESIAN_POINT ( 'NONE',  ( -6.000000000000000888, 0.000000000000000000, 630.0000000000000000 ) ) ;
#255 = ORIENTED_EDGE ( 'NONE', *, *, #186, .T. ) ;
ENDSEC;
END-ISO-10303-21;
