ISO-10303-21;
HEADER;
FILE_DESCRIPTION (( 'STEP AP203' ),
    '1' );
FILE_NAME ('9c8f.STEP',
    '2023-02-13T14:16:16',
    ( '' ),
    ( '' ),
    'SwSTEP 2.0',
    'SolidWorks 2019',
    '' );
FILE_SCHEMA (( 'CONFIG_CONTROL_DESIGN' ));
ENDSEC;

DATA;
#1 = CALENDAR_DATE ( 2023, 13, 2 ) ;
#2 = CALENDAR_DATE ( 2023, 13, 2 ) ;
#3 =( GEOMETRIC_REPRESENTATION_CONTEXT ( 3 ) GLOBAL_UNCERTAINTY_ASSIGNED_CONTEXT ( ( #52 ) ) GLOBAL_UNIT_ASSIGNED_CONTEXT ( ( #152, #131, #237 ) ) REPRESENTATION_CONTEXT ( 'NONE', 'WORKASPACE' ) );
#4 = ORIENTED_EDGE ( 'NONE', *, *, #8, .F. ) ;
#5 = COORDINATED_UNIVERSAL_TIME_OFFSET ( 1, 0, .AHEAD. ) ;
#6 = AXIS2_PLACEMENT_3D ( 'NONE', #49, #213, #126 ) ;
#7 = CARTESIAN_POINT ( 'NONE',  ( 0.000000000000000000, 0.000000000000000000, 6.500000000000000000 ) ) ;
#8 = EDGE_CURVE ( 'NONE', #119, #48, #12, .T. ) ;
#9 = ORIENTED_EDGE ( 'NONE', *, *, #30, .T. ) ;
#10 = DIRECTION ( 'NONE',  ( -0.000000000000000000, -0.000000000000000000, -1.000000000000000000 ) ) ;
#11 = VERTEX_POINT ( 'NONE', #107 ) ;
#12 = CIRCLE ( 'NONE', #122, 4.099999999999999645 ) ;
#13 = EDGE_CURVE ( 'NONE', #35, #148, #130, .T. ) ;
#14 = ORIENTED_EDGE ( 'NONE', *, *, #66, .F. ) ;
#15 = DIRECTION ( 'NONE',  ( -0.000000000000000000, -0.000000000000000000, -1.000000000000000000 ) ) ;
#16 = CC_DESIGN_PERSON_AND_ORGANIZATION_ASSIGNMENT ( #183, #60, ( #221 ) ) ;
#17 = APPLICATION_CONTEXT ( 'configuration controlled 3d designs of mechanical parts and assemblies' ) ;
#18 = LINE ( 'NONE', #208, #21 ) ;
#19 = SECURITY_CLASSIFICATION ( '', '', #118 ) ;
#20 = PLANE ( 'NONE',  #55 ) ;
#21 = VECTOR ( 'NONE', #222, 1000.000000000000000 ) ;
#22 = CARTESIAN_POINT ( 'NONE',  ( 7.000000000000000000, 8.572527594031471218E-16, 6.500000000000000000 ) ) ;
#23 = PERSON_AND_ORGANIZATION_ROLE ( 'creator' ) ;
#24 = DATE_AND_TIME ( #25, #134 ) ;
#25 = CALENDAR_DATE ( 2023, 13, 2 ) ;
#26 = EDGE_CURVE ( 'NONE', #11, #175, #169, .T. ) ;
#27 = DATE_TIME_ROLE ( 'creation_date' ) ;
#28 = COORDINATED_UNIVERSAL_TIME_OFFSET ( 1, 0, .AHEAD. ) ;
#29 = DIRECTION ( 'NONE',  ( 0.000000000000000000, 0.000000000000000000, 1.000000000000000000 ) ) ;
#30 = EDGE_CURVE ( 'NONE', #125, #173, #197, .T. ) ;
#31 = DIRECTION ( 'NONE',  ( 0.000000000000000000, 0.000000000000000000, 1.000000000000000000 ) ) ;
#32 = ORIENTED_EDGE ( 'NONE', *, *, #26, .F. ) ;
#33 = DESIGN_CONTEXT ( 'detailed design', #171, 'design' ) ;
#34 = DIRECTION ( 'NONE',  ( 1.000000000000000000, 0.000000000000000000, 0.000000000000000000 ) ) ;
#35 = VERTEX_POINT ( 'NONE', #127 ) ;
#36 = LOCAL_TIME ( 15, 16, 16.00000000000000000, #28 ) ;
#37 = FACE_OUTER_BOUND ( 'NONE', #128, .T. ) ;
#38 = DIRECTION ( 'NONE',  ( 0.000000000000000000, 0.000000000000000000, 1.000000000000000000 ) ) ;
#39 = PRODUCT_DEFINITION_SHAPE ( 'NONE', 'NONE',  #179 ) ;
#40 = DIRECTION ( 'NONE',  ( 0.000000000000000000, 0.000000000000000000, 1.000000000000000000 ) ) ;
#41 = CARTESIAN_POINT ( 'NONE',  ( 0.000000000000000000, 0.000000000000000000, 0.000000000000000000 ) ) ;
#42 = ORIENTED_EDGE ( 'NONE', *, *, #154, .T. ) ;
#43 = APPROVAL ( #121, 'NEURÈENÝ' ) ;
#44 = PERSON_AND_ORGANIZATION ( #212, #59 ) ;
#45 = PERSON_AND_ORGANIZATION ( #212, #59 ) ;
#46 = AXIS2_PLACEMENT_3D ( 'NONE', #217, #31, #34 ) ;
#47 = DATE_AND_TIME ( #139, #36 ) ;
#48 = VERTEX_POINT ( 'NONE', #103 ) ;
#49 = CARTESIAN_POINT ( 'NONE',  ( 0.000000000000000000, 0.000000000000000000, 500.0000000000000000 ) ) ;
#50 = CARTESIAN_POINT ( 'NONE',  ( 7.000000000000000000, 8.572527594031471218E-16, 6.500000000000000000 ) ) ;
#51 = DIRECTION ( 'NONE',  ( 1.000000000000000000, 0.000000000000000000, 0.000000000000000000 ) ) ;
#52 = UNCERTAINTY_MEASURE_WITH_UNIT (LENGTH_MEASURE( 1.000000000000000082E-05 ), #152, 'distance_accuracy_value', 'NONE');
#53 = LOCAL_TIME ( 15, 16, 16.00000000000000000, #5 ) ;
#54 = FACE_OUTER_BOUND ( 'NONE', #97, .T. ) ;
#55 = AXIS2_PLACEMENT_3D ( 'NONE', #199, #69, #112 ) ;
#56 = LINE ( 'NONE', #110, #190 ) ;
#57 = ADVANCED_FACE ( 'NONE', ( #88 ), #192, .T. ) ;
#58 = DIRECTION ( 'NONE',  ( 0.000000000000000000, 0.000000000000000000, 1.000000000000000000 ) ) ;
#59 = ORGANIZATION ( 'NEURÈENÝ', 'NEURÈENÝ', '' ) ;
#60 = PERSON_AND_ORGANIZATION_ROLE ( 'design_supplier' ) ;
#61 = ADVANCED_BREP_SHAPE_REPRESENTATION ( '9c8f', ( #218, #177 ), #3 ) ;
#62 = DATE_AND_TIME ( #142, #230 ) ;
#63 = AXIS2_PLACEMENT_3D ( 'NONE', #71, #15, #202 ) ;
#64 = DIRECTION ( 'NONE',  ( 0.000000000000000000, 0.000000000000000000, 1.000000000000000000 ) ) ;
#65 = ORIENTED_EDGE ( 'NONE', *, *, #195, .F. ) ;
#66 = EDGE_CURVE ( 'NONE', #173, #125, #161, .T. ) ;
#67 = EDGE_LOOP ( 'NONE', ( #68, #242 ) ) ;
#68 = ORIENTED_EDGE ( 'NONE', *, *, #26, .T. ) ;
#69 = DIRECTION ( 'NONE',  ( 0.000000000000000000, 0.000000000000000000, 1.000000000000000000 ) ) ;
#70 = APPLICATION_PROTOCOL_DEFINITION ( 'international standard', 'config_control_design', 1994, #17 ) ;
#71 = CARTESIAN_POINT ( 'NONE',  ( 0.000000000000000000, 0.000000000000000000, 6.500000000000000000 ) ) ;
#72 = PRODUCT_RELATED_PRODUCT_CATEGORY ( 'detail', '', ( #209 ) ) ;
#73 = CARTESIAN_POINT ( 'NONE',  ( 0.000000000000000000, 0.000000000000000000, 6.500000000000000000 ) ) ;
#74 = DATE_TIME_ROLE ( 'classification_date' ) ;
#75 = DIRECTION ( 'NONE',  ( 0.000000000000000000, 0.000000000000000000, 1.000000000000000000 ) ) ;
#76 = APPROVAL_DATE_TIME ( #162, #174 ) ;
#77 = CIRCLE ( 'NONE', #207, 4.099999999999999645 ) ;
#78 = CC_DESIGN_SECURITY_CLASSIFICATION ( #19, ( #221 ) ) ;
#79 = ADVANCED_FACE ( 'NONE', ( #54 ), #232, .T. ) ;
#80 = ORIENTED_EDGE ( 'NONE', *, *, #83, .F. ) ;
#81 = VECTOR ( 'NONE', #10, 1000.000000000000000 ) ;
#82 = ORIENTED_EDGE ( 'NONE', *, *, #205, .F. ) ;
#83 = EDGE_CURVE ( 'NONE', #175, #173, #85, .T. ) ;
#84 = AXIS2_PLACEMENT_3D ( 'NONE', #178, #223, #115 ) ;
#85 = LINE ( 'NONE', #50, #81 ) ;
#86 = CLOSED_SHELL ( 'NONE', ( #79, #236, #149, #245, #117, #57, #136 ) ) ;
#87 = ORIENTED_EDGE ( 'NONE', *, *, #89, .T. ) ;
#88 = FACE_OUTER_BOUND ( 'NONE', #163, .T. ) ;
#89 = EDGE_CURVE ( 'NONE', #48, #119, #77, .T. ) ;
#90 = DIRECTION ( 'NONE',  ( 1.000000000000000000, 0.000000000000000000, 0.000000000000000000 ) ) ;
#91 = DIRECTION ( 'NONE',  ( -0.000000000000000000, -0.000000000000000000, -1.000000000000000000 ) ) ;
#92 = CYLINDRICAL_SURFACE ( 'NONE', #63, 7.000000000000000000 ) ;
#93 = CARTESIAN_POINT ( 'NONE',  ( -7.000000000000000000, 0.000000000000000000, 0.000000000000000000 ) ) ;
#94 = DIRECTION ( 'NONE',  ( -0.000000000000000000, -0.000000000000000000, -1.000000000000000000 ) ) ;
#95 = PERSON_AND_ORGANIZATION_ROLE ( 'creator' ) ;
#96 = DATE_AND_TIME ( #1, #193 ) ;
#97 = EDGE_LOOP ( 'NONE', ( #4, #106, #129, #147 ) ) ;
#98 = PERSON_AND_ORGANIZATION ( #212, #59 ) ;
#99 = PERSON_AND_ORGANIZATION ( #212, #59 ) ;
#100 = CC_DESIGN_PERSON_AND_ORGANIZATION_ASSIGNMENT ( #45, #95, ( #221 ) ) ;
#101 = PERSON_AND_ORGANIZATION_ROLE ( 'classification_officer' ) ;
#102 = CARTESIAN_POINT ( 'NONE',  ( 0.000000000000000000, 0.000000000000000000, 500.0000000000000000 ) ) ;
#103 = CARTESIAN_POINT ( 'NONE',  ( -4.099999999999999645, 0.000000000000000000, 500.0000000000000000 ) ) ;
#104 = ORIENTED_EDGE ( 'NONE', *, *, #158, .F. ) ;
#105 = APPROVAL_PERSON_ORGANIZATION ( #44, #43, #228 ) ;
#106 = ORIENTED_EDGE ( 'NONE', *, *, #195, .T. ) ;
#107 = CARTESIAN_POINT ( 'NONE',  ( -7.000000000000000000, 0.000000000000000000, 6.500000000000000000 ) ) ;
#108 = CARTESIAN_POINT ( 'NONE',  ( -4.099999999999999645, 0.000000000000000000, 6.500000000000000000 ) ) ;
#109 = AXIS2_PLACEMENT_3D ( 'NONE', #194, #248, #231 ) ;
#110 = CARTESIAN_POINT ( 'NONE',  ( 4.099999999999999645, 5.021051876504147385E-16, 500.0000000000000000 ) ) ;
#111 = CC_DESIGN_DATE_AND_TIME_ASSIGNMENT ( #62, #27, ( #179 ) ) ;
#112 = DIRECTION ( 'NONE',  ( 1.000000000000000000, 0.000000000000000000, -0.000000000000000000 ) ) ;
#113 = DIRECTION ( 'NONE',  ( -0.000000000000000000, -0.000000000000000000, -1.000000000000000000 ) ) ;
#114 = AXIS2_PLACEMENT_3D ( 'NONE', #249, #64, #251 ) ;
#115 = DIRECTION ( 'NONE',  ( 1.000000000000000000, 0.000000000000000000, 0.000000000000000000 ) ) ;
#116 = DIRECTION ( 'NONE',  ( 1.000000000000000000, 0.000000000000000000, 0.000000000000000000 ) ) ;
#117 = ADVANCED_FACE ( 'NONE', ( #201 ), #20, .F. ) ;
#118 = SECURITY_CLASSIFICATION_LEVEL ( 'unclassified' ) ;
#119 = VERTEX_POINT ( 'NONE', #238 ) ;
#120 = PERSON_AND_ORGANIZATION ( #212, #59 ) ;
#121 = APPROVAL_STATUS ( 'not_yet_approved' ) ;
#122 = AXIS2_PLACEMENT_3D ( 'NONE', #250, #235, #51 ) ;
#123 = MECHANICAL_CONTEXT ( 'NONE', #17, 'mechanical' ) ;
#124 = AXIS2_PLACEMENT_3D ( 'NONE', #132, #113, #182 ) ;
#125 = VERTEX_POINT ( 'NONE', #93 ) ;
#126 = DIRECTION ( 'NONE',  ( -1.000000000000000000, 0.000000000000000000, 0.000000000000000000 ) ) ;
#127 = CARTESIAN_POINT ( 'NONE',  ( 4.099999999999999645, 5.021051876504147385E-16, 6.500000000000000000 ) ) ;
#128 = EDGE_LOOP ( 'NONE', ( #82, #165, #138, #104 ) ) ;
#129 = ORIENTED_EDGE ( 'NONE', *, *, #13, .T. ) ;
#130 = CIRCLE ( 'NONE', #157, 4.099999999999999645 ) ;
#131 =( NAMED_UNIT ( * ) PLANE_ANGLE_UNIT ( ) SI_UNIT ( $, .RADIAN. ) );
#132 = CARTESIAN_POINT ( 'NONE',  ( 0.000000000000000000, 0.000000000000000000, 6.500000000000000000 ) ) ;
#133 = CARTESIAN_POINT ( 'NONE',  ( 0.000000000000000000, 0.000000000000000000, 6.500000000000000000 ) ) ;
#134 = LOCAL_TIME ( 15, 16, 16.00000000000000000, #211 ) ;
#135 = SHAPE_DEFINITION_REPRESENTATION ( #39, #61 ) ;
#136 = ADVANCED_FACE ( 'NONE', ( #155 ), #254, .T. ) ;
#137 = APPROVAL_DATE_TIME ( #24, #43 ) ;
#138 = ORIENTED_EDGE ( 'NONE', *, *, #66, .T. ) ;
#139 = CALENDAR_DATE ( 2023, 13, 2 ) ;
#140 = VECTOR ( 'NONE', #91, 1000.000000000000000 ) ;
#141 = CC_DESIGN_PERSON_AND_ORGANIZATION_ASSIGNMENT ( #227, #23, ( #179 ) ) ;
#142 = CALENDAR_DATE ( 2023, 13, 2 ) ;
#143 = ORIENTED_EDGE ( 'NONE', *, *, #13, .F. ) ;
#144 = APPROVAL_PERSON_ORGANIZATION ( #98, #146, #225 ) ;
#145 = ORIENTED_EDGE ( 'NONE', *, *, #200, .T. ) ;
#146 = APPROVAL ( #159, 'NEURÈENÝ' ) ;
#147 = ORIENTED_EDGE ( 'NONE', *, *, #200, .F. ) ;
#148 = VERTEX_POINT ( 'NONE', #108 ) ;
#149 = ADVANCED_FACE ( 'NONE', ( #220 ), #92, .T. ) ;
#150 = AXIS2_PLACEMENT_3D ( 'NONE', #224, #40, #156 ) ;
#151 = ORIENTED_EDGE ( 'NONE', *, *, #158, .T. ) ;
#152 =( LENGTH_UNIT ( ) NAMED_UNIT ( * ) SI_UNIT ( .MILLI., .METRE. ) );
#153 = DIRECTION ( 'NONE',  ( 1.000000000000000000, 0.000000000000000000, 0.000000000000000000 ) ) ;
#154 = EDGE_CURVE ( 'NONE', #148, #35, #244, .T. ) ;
#155 = FACE_OUTER_BOUND ( 'NONE', #191, .T. ) ;
#156 = DIRECTION ( 'NONE',  ( 1.000000000000000000, 0.000000000000000000, -0.000000000000000000 ) ) ;
#157 = AXIS2_PLACEMENT_3D ( 'NONE', #7, #29, #176 ) ;
#158 = EDGE_CURVE ( 'NONE', #11, #125, #18, .T. ) ;
#159 = APPROVAL_STATUS ( 'not_yet_approved' ) ;
#160 = AXIS2_PLACEMENT_3D ( 'NONE', #73, #58, #240 ) ;
#161 = CIRCLE ( 'NONE', #109, 7.000000000000000000 ) ;
#162 = DATE_AND_TIME ( #2, #53 ) ;
#163 = EDGE_LOOP ( 'NONE', ( #65, #186, #145, #42 ) ) ;
#164 = PERSON_AND_ORGANIZATION ( #212, #59 ) ;
#165 = ORIENTED_EDGE ( 'NONE', *, *, #83, .T. ) ;
#166 = CC_DESIGN_DATE_AND_TIME_ASSIGNMENT ( #96, #74, ( #19 ) ) ;
#167 = APPROVAL_PERSON_ORGANIZATION ( #99, #174, #187 ) ;
#168 = COORDINATED_UNIVERSAL_TIME_OFFSET ( 1, 0, .AHEAD. ) ;
#169 = CIRCLE ( 'NONE', #46, 7.000000000000000000 ) ;
#170 = EDGE_LOOP ( 'NONE', ( #219, #143 ) ) ;
#171 = APPLICATION_CONTEXT ( 'configuration controlled 3d designs of mechanical parts and assemblies' ) ;
#172 = DIRECTION ( 'NONE',  ( -1.000000000000000000, 0.000000000000000000, 0.000000000000000000 ) ) ;
#173 = VERTEX_POINT ( 'NONE', #180 ) ;
#174 = APPROVAL ( #188, 'NEURÈENÝ' ) ;
#175 = VERTEX_POINT ( 'NONE', #22 ) ;
#176 = DIRECTION ( 'NONE',  ( 1.000000000000000000, 0.000000000000000000, 0.000000000000000000 ) ) ;
#177 = AXIS2_PLACEMENT_3D ( 'NONE', #41, #75, #116 ) ;
#178 = CARTESIAN_POINT ( 'NONE',  ( 0.000000000000000000, 0.000000000000000000, 6.500000000000000000 ) ) ;
#179 = PRODUCT_DEFINITION ( 'NEZNÁMÝ', '', #221, #33 ) ;
#180 = CARTESIAN_POINT ( 'NONE',  ( 7.000000000000000000, 8.572527594031471218E-16, 0.000000000000000000 ) ) ;
#181 = CYLINDRICAL_SURFACE ( 'NONE', #124, 7.000000000000000000 ) ;
#182 = DIRECTION ( 'NONE',  ( -1.000000000000000000, 0.000000000000000000, 0.000000000000000000 ) ) ;
#183 = PERSON_AND_ORGANIZATION ( #212, #59 ) ;
#184 = CIRCLE ( 'NONE', #234, 7.000000000000000000 ) ;
#185 = CC_DESIGN_PERSON_AND_ORGANIZATION_ASSIGNMENT ( #164, #243, ( #209 ) ) ;
#186 = ORIENTED_EDGE ( 'NONE', *, *, #89, .F. ) ;
#187 = APPROVAL_ROLE ( '' ) ;
#188 = APPROVAL_STATUS ( 'not_yet_approved' ) ;
#189 = CC_DESIGN_APPROVAL ( #43, ( #179 ) ) ;
#190 = VECTOR ( 'NONE', #94, 1000.000000000000000 ) ;
#191 = EDGE_LOOP ( 'NONE', ( #87, #233 ) ) ;
#192 = CYLINDRICAL_SURFACE ( 'NONE', #204, 4.099999999999999645 ) ;
#193 = LOCAL_TIME ( 15, 16, 16.00000000000000000, #168 ) ;
#194 = CARTESIAN_POINT ( 'NONE',  ( 0.000000000000000000, 0.000000000000000000, 0.000000000000000000 ) ) ;
#195 = EDGE_CURVE ( 'NONE', #119, #35, #56, .T. ) ;
#196 = CARTESIAN_POINT ( 'NONE',  ( 0.000000000000000000, 0.000000000000000000, 500.0000000000000000 ) ) ;
#197 = CIRCLE ( 'NONE', #114, 7.000000000000000000 ) ;
#198 = DIRECTION ( 'NONE',  ( -0.000000000000000000, -0.000000000000000000, -1.000000000000000000 ) ) ;
#199 = CARTESIAN_POINT ( 'NONE',  ( 0.000000000000000000, 0.000000000000000000, 0.000000000000000000 ) ) ;
#200 = EDGE_CURVE ( 'NONE', #48, #148, #239, .T. ) ;
#201 = FACE_OUTER_BOUND ( 'NONE', #214, .T. ) ;
#202 = DIRECTION ( 'NONE',  ( -1.000000000000000000, 0.000000000000000000, 0.000000000000000000 ) ) ;
#203 = FACE_BOUND ( 'NONE', #170, .T. ) ;
#204 = AXIS2_PLACEMENT_3D ( 'NONE', #196, #198, #172 ) ;
#205 = EDGE_CURVE ( 'NONE', #175, #11, #184, .T. ) ;
#206 = CC_DESIGN_APPROVAL ( #174, ( #19 ) ) ;
#207 = AXIS2_PLACEMENT_3D ( 'NONE', #102, #216, #153 ) ;
#208 = CARTESIAN_POINT ( 'NONE',  ( -7.000000000000000000, 0.000000000000000000, 6.500000000000000000 ) ) ;
#209 = PRODUCT ( '9c8f', '9c8f', '', ( #123 ) ) ;
#210 = APPLICATION_PROTOCOL_DEFINITION ( 'international standard', 'config_control_design', 1994, #171 ) ;
#211 = COORDINATED_UNIVERSAL_TIME_OFFSET ( 1, 0, .AHEAD. ) ;
#212 = PERSON ( 'NEURÈENÝ', 'NEURÈENÝ', 'NEURÈENÝ', ('NEURÈENÝ'), ('NEURÈENÝ'), ('NEURÈENÝ') ) ;
#213 = DIRECTION ( 'NONE',  ( -0.000000000000000000, -0.000000000000000000, -1.000000000000000000 ) ) ;
#214 = EDGE_LOOP ( 'NONE', ( #229, #14 ) ) ;
#215 = CC_DESIGN_PERSON_AND_ORGANIZATION_ASSIGNMENT ( #120, #101, ( #19 ) ) ;
#216 = DIRECTION ( 'NONE',  ( 0.000000000000000000, 0.000000000000000000, 1.000000000000000000 ) ) ;
#217 = CARTESIAN_POINT ( 'NONE',  ( 0.000000000000000000, 0.000000000000000000, 6.500000000000000000 ) ) ;
#218 = MANIFOLD_SOLID_BREP ( 'Pøidat vysunutím3', #86 ) ;
#219 = ORIENTED_EDGE ( 'NONE', *, *, #154, .F. ) ;
#220 = FACE_OUTER_BOUND ( 'NONE', #246, .T. ) ;
#221 = PRODUCT_DEFINITION_FORMATION_WITH_SPECIFIED_SOURCE ( 'LIBOVOLNÝ', '', #209, .NOT_KNOWN. ) ;
#222 = DIRECTION ( 'NONE',  ( -0.000000000000000000, -0.000000000000000000, -1.000000000000000000 ) ) ;
#223 = DIRECTION ( 'NONE',  ( 0.000000000000000000, 0.000000000000000000, 1.000000000000000000 ) ) ;
#224 = CARTESIAN_POINT ( 'NONE',  ( 0.000000000000000000, 0.000000000000000000, 500.0000000000000000 ) ) ;
#225 = APPROVAL_ROLE ( '' ) ;
#226 = COORDINATED_UNIVERSAL_TIME_OFFSET ( 1, 0, .AHEAD. ) ;
#227 = PERSON_AND_ORGANIZATION ( #212, #59 ) ;
#228 = APPROVAL_ROLE ( '' ) ;
#229 = ORIENTED_EDGE ( 'NONE', *, *, #30, .F. ) ;
#230 = LOCAL_TIME ( 15, 16, 16.00000000000000000, #226 ) ;
#231 = DIRECTION ( 'NONE',  ( 1.000000000000000000, 0.000000000000000000, 0.000000000000000000 ) ) ;
#232 = CYLINDRICAL_SURFACE ( 'NONE', #6, 4.099999999999999645 ) ;
#233 = ORIENTED_EDGE ( 'NONE', *, *, #8, .T. ) ;
#234 = AXIS2_PLACEMENT_3D ( 'NONE', #133, #38, #90 ) ;
#235 = DIRECTION ( 'NONE',  ( 0.000000000000000000, 0.000000000000000000, 1.000000000000000000 ) ) ;
#236 = ADVANCED_FACE ( 'NONE', ( #37 ), #181, .T. ) ;
#237 =( NAMED_UNIT ( * ) SI_UNIT ( $, .STERADIAN. ) SOLID_ANGLE_UNIT ( ) );
#238 = CARTESIAN_POINT ( 'NONE',  ( 4.099999999999999645, 5.021051876504147385E-16, 500.0000000000000000 ) ) ;
#239 = LINE ( 'NONE', #252, #140 ) ;
#240 = DIRECTION ( 'NONE',  ( 1.000000000000000000, 0.000000000000000000, -0.000000000000000000 ) ) ;
#241 = APPROVAL_DATE_TIME ( #47, #146 ) ;
#242 = ORIENTED_EDGE ( 'NONE', *, *, #205, .T. ) ;
#243 = PERSON_AND_ORGANIZATION_ROLE ( 'design_owner' ) ;
#244 = CIRCLE ( 'NONE', #84, 4.099999999999999645 ) ;
#245 = ADVANCED_FACE ( 'NONE', ( #203, #253 ), #255, .T. ) ;
#246 = EDGE_LOOP ( 'NONE', ( #80, #32, #151, #9 ) ) ;
#247 = CC_DESIGN_APPROVAL ( #146, ( #221 ) ) ;
#248 = DIRECTION ( 'NONE',  ( 0.000000000000000000, 0.000000000000000000, 1.000000000000000000 ) ) ;
#249 = CARTESIAN_POINT ( 'NONE',  ( 0.000000000000000000, 0.000000000000000000, 0.000000000000000000 ) ) ;
#250 = CARTESIAN_POINT ( 'NONE',  ( 0.000000000000000000, 0.000000000000000000, 500.0000000000000000 ) ) ;
#251 = DIRECTION ( 'NONE',  ( 1.000000000000000000, 0.000000000000000000, 0.000000000000000000 ) ) ;
#252 = CARTESIAN_POINT ( 'NONE',  ( -4.099999999999999645, 0.000000000000000000, 500.0000000000000000 ) ) ;
#253 = FACE_OUTER_BOUND ( 'NONE', #67, .T. ) ;
#254 = PLANE ( 'NONE',  #150 ) ;
#255 = PLANE ( 'NONE',  #160 ) ;
ENDSEC;
END-ISO-10303-21;
