ISO-10303-21;
HEADER;
FILE_DESCRIPTION (( 'STEP AP203' ),
    '1' );
FILE_NAME ('1e00.STEP',
    '2023-02-13T11:28:58',
    ( '' ),
    ( '' ),
    'SwSTEP 2.0',
    'SolidWorks 2019',
    '' );
FILE_SCHEMA (( 'CONFIG_CONTROL_DESIGN' ));
ENDSEC;

DATA;
#1 = ORIENTED_EDGE ( 'NONE', *, *, #195, .T. ) ;
#2 = APPROVAL_ROLE ( '' ) ;
#3 = CARTESIAN_POINT ( 'NONE',  ( 0.000000000000000000, 0.000000000000000000, 7.000000000000000000 ) ) ;
#4 = ORIENTED_EDGE ( 'NONE', *, *, #68, .F. ) ;
#5 = EDGE_CURVE ( 'NONE', #141, #94, #119, .T. ) ;
#6 = AXIS2_PLACEMENT_3D ( 'NONE', #170, #191, #12 ) ;
#7 = CALENDAR_DATE ( 2023, 13, 2 ) ;
#8 = DIRECTION ( 'NONE',  ( -0.000000000000000000, -0.000000000000000000, -1.000000000000000000 ) ) ;
#9 = DIRECTION ( 'NONE',  ( 1.000000000000000000, 0.000000000000000000, 0.000000000000000000 ) ) ;
#10 = VERTEX_POINT ( 'NONE', #181 ) ;
#11 = CC_DESIGN_PERSON_AND_ORGANIZATION_ASSIGNMENT ( #26, #156, ( #153 ) ) ;
#12 = DIRECTION ( 'NONE',  ( 1.000000000000000000, 0.000000000000000000, -0.000000000000000000 ) ) ;
#13 = CIRCLE ( 'NONE', #155, 9.000000000000000000 ) ;
#14 = FACE_OUTER_BOUND ( 'NONE', #224, .T. ) ;
#15 = ORIENTED_EDGE ( 'NONE', *, *, #97, .F. ) ;
#16 = EDGE_CURVE ( 'NONE', #94, #107, #33, .T. ) ;
#17 = AXIS2_PLACEMENT_3D ( 'NONE', #154, #41, #115 ) ;
#18 = DIRECTION ( 'NONE',  ( 1.000000000000000000, 0.000000000000000000, -0.000000000000000000 ) ) ;
#19 = APPLICATION_CONTEXT ( 'configuration controlled 3d designs of mechanical parts and assemblies' ) ;
#20 = CALENDAR_DATE ( 2023, 13, 2 ) ;
#21 = ORIENTED_EDGE ( 'NONE', *, *, #75, .F. ) ;
#22 = APPROVAL ( #45, 'NEURÈENÝ' ) ;
#23 = AXIS2_PLACEMENT_3D ( 'NONE', #53, #212, #127 ) ;
#24 = DATE_TIME_ROLE ( 'classification_date' ) ;
#25 = CARTESIAN_POINT ( 'NONE',  ( -6.099999999999999645, 0.000000000000000000, 315.0000000000000000 ) ) ;
#26 = PERSON_AND_ORGANIZATION ( #36, #104 ) ;
#27 = PERSON_AND_ORGANIZATION ( #36, #104 ) ;
#28 = ORIENTED_EDGE ( 'NONE', *, *, #206, .T. ) ;
#29 = LOCAL_TIME ( 12, 28, 58.00000000000000000, #160 ) ;
#30 = APPROVAL_DATE_TIME ( #144, #219 ) ;
#31 = DIRECTION ( 'NONE',  ( -1.000000000000000000, 0.000000000000000000, 0.000000000000000000 ) ) ;
#32 = CARTESIAN_POINT ( 'NONE',  ( 0.000000000000000000, 0.000000000000000000, 315.0000000000000000 ) ) ;
#33 = CIRCLE ( 'NONE', #60, 6.099999999999999645 ) ;
#34 = ORIENTED_EDGE ( 'NONE', *, *, #244, .F. ) ;
#35 = AXIS2_PLACEMENT_3D ( 'NONE', #150, #197, #184 ) ;
#36 = PERSON ( 'NEURÈENÝ', 'NEURÈENÝ', 'NEURÈENÝ', ('NEURÈENÝ'), ('NEURÈENÝ'), ('NEURÈENÝ') ) ;
#37 = DIRECTION ( 'NONE',  ( 0.000000000000000000, 0.000000000000000000, 1.000000000000000000 ) ) ;
#38 = EDGE_CURVE ( 'NONE', #79, #202, #246, .T. ) ;
#39 = CARTESIAN_POINT ( 'NONE',  ( 0.000000000000000000, 0.000000000000000000, 7.000000000000000000 ) ) ;
#40 = CC_DESIGN_SECURITY_CLASSIFICATION ( #96, ( #50 ) ) ;
#41 = DIRECTION ( 'NONE',  ( 0.000000000000000000, 0.000000000000000000, 1.000000000000000000 ) ) ;
#42 = ADVANCED_FACE ( 'NONE', ( #214 ), #215, .T. ) ;
#43 = DATE_AND_TIME ( #176, #185 ) ;
#44 = ORIENTED_EDGE ( 'NONE', *, *, #65, .F. ) ;
#45 = APPROVAL_STATUS ( 'not_yet_approved' ) ;
#46 = DIRECTION ( 'NONE',  ( 1.000000000000000000, 0.000000000000000000, 0.000000000000000000 ) ) ;
#47 = ADVANCED_FACE ( 'NONE', ( #143, #126 ), #124, .T. ) ;
#48 = UNCERTAINTY_MEASURE_WITH_UNIT (LENGTH_MEASURE( 1.000000000000000082E-05 ), #80, 'distance_accuracy_value', 'NONE');
#49 = ORIENTED_EDGE ( 'NONE', *, *, #244, .T. ) ;
#50 = PRODUCT_DEFINITION_FORMATION_WITH_SPECIFIED_SOURCE ( 'LIBOVOLNÝ', '', #203, .NOT_KNOWN. ) ;
#51 = CC_DESIGN_PERSON_AND_ORGANIZATION_ASSIGNMENT ( #27, #237, ( #50 ) ) ;
#52 = DIRECTION ( 'NONE',  ( -1.000000000000000000, 0.000000000000000000, 0.000000000000000000 ) ) ;
#53 = CARTESIAN_POINT ( 'NONE',  ( 0.000000000000000000, 0.000000000000000000, 7.000000000000000000 ) ) ;
#54 = AXIS2_PLACEMENT_3D ( 'NONE', #39, #234, #72 ) ;
#55 = CIRCLE ( 'NONE', #114, 6.099999999999999645 ) ;
#56 = AXIS2_PLACEMENT_3D ( 'NONE', #232, #217, #18 ) ;
#57 = DIRECTION ( 'NONE',  ( -0.000000000000000000, -0.000000000000000000, -1.000000000000000000 ) ) ;
#58 = VERTEX_POINT ( 'NONE', #213 ) ;
#59 = DIRECTION ( 'NONE',  ( -0.000000000000000000, -0.000000000000000000, -1.000000000000000000 ) ) ;
#60 = AXIS2_PLACEMENT_3D ( 'NONE', #3, #159, #241 ) ;
#61 = PERSON_AND_ORGANIZATION ( #36, #104 ) ;
#62 = ORIENTED_EDGE ( 'NONE', *, *, #167, .F. ) ;
#63 = APPROVAL_STATUS ( 'not_yet_approved' ) ;
#64 = ORIENTED_EDGE ( 'NONE', *, *, #167, .T. ) ;
#65 = EDGE_CURVE ( 'NONE', #82, #141, #55, .T. ) ;
#66 = PERSON_AND_ORGANIZATION_ROLE ( 'classification_officer' ) ;
#67 = EDGE_LOOP ( 'NONE', ( #225, #238 ) ) ;
#68 = EDGE_CURVE ( 'NONE', #58, #10, #13, .T. ) ;
#69 = AXIS2_PLACEMENT_3D ( 'NONE', #200, #37, #250 ) ;
#70 = DIRECTION ( 'NONE',  ( -0.000000000000000000, -0.000000000000000000, -1.000000000000000000 ) ) ;
#71 = APPROVAL ( #98, 'NEURÈENÝ' ) ;
#72 = DIRECTION ( 'NONE',  ( 1.000000000000000000, 0.000000000000000000, 0.000000000000000000 ) ) ;
#73 = CIRCLE ( 'NONE', #69, 9.000000000000000000 ) ;
#74 = FACE_OUTER_BOUND ( 'NONE', #178, .T. ) ;
#75 = EDGE_CURVE ( 'NONE', #82, #107, #229, .T. ) ;
#76 = COORDINATED_UNIVERSAL_TIME_OFFSET ( 1, 0, .AHEAD. ) ;
#77 = ORIENTED_EDGE ( 'NONE', *, *, #75, .T. ) ;
#78 = PERSON_AND_ORGANIZATION ( #36, #104 ) ;
#79 = VERTEX_POINT ( 'NONE', #249 ) ;
#80 =( LENGTH_UNIT ( ) NAMED_UNIT ( * ) SI_UNIT ( .MILLI., .METRE. ) );
#81 = ADVANCED_FACE ( 'NONE', ( #166 ), #248, .T. ) ;
#82 = VERTEX_POINT ( 'NONE', #231 ) ;
#83 = LOCAL_TIME ( 12, 28, 58.00000000000000000, #208 ) ;
#84 = CIRCLE ( 'NONE', #164, 6.099999999999999645 ) ;
#85 = ADVANCED_FACE ( 'NONE', ( #74 ), #108, .T. ) ;
#86 = CARTESIAN_POINT ( 'NONE',  ( 6.099999999999999645, 7.470345474798854293E-16, 315.0000000000000000 ) ) ;
#87 = AXIS2_PLACEMENT_3D ( 'NONE', #138, #227, #46 ) ;
#88 = DIRECTION ( 'NONE',  ( 1.000000000000000000, 0.000000000000000000, 0.000000000000000000 ) ) ;
#89 = CYLINDRICAL_SURFACE ( 'NONE', #210, 6.099999999999999645 ) ;
#90 = CARTESIAN_POINT ( 'NONE',  ( -9.000000000000000000, 0.000000000000000000, 0.000000000000000000 ) ) ;
#91 = DIRECTION ( 'NONE',  ( -0.000000000000000000, -0.000000000000000000, -1.000000000000000000 ) ) ;
#92 = LINE ( 'NONE', #111, #162 ) ;
#93 = COORDINATED_UNIVERSAL_TIME_OFFSET ( 1, 0, .AHEAD. ) ;
#94 = VERTEX_POINT ( 'NONE', #220 ) ;
#95 = DATE_AND_TIME ( #223, #149 ) ;
#96 = SECURITY_CLASSIFICATION ( '', '', #239 ) ;
#97 = EDGE_CURVE ( 'NONE', #10, #79, #131, .T. ) ;
#98 = APPROVAL_STATUS ( 'not_yet_approved' ) ;
#99 = DIRECTION ( 'NONE',  ( -0.000000000000000000, -0.000000000000000000, -1.000000000000000000 ) ) ;
#100 = COORDINATED_UNIVERSAL_TIME_OFFSET ( 1, 0, .AHEAD. ) ;
#101 = DATE_AND_TIME ( #20, #29 ) ;
#102 = CC_DESIGN_PERSON_AND_ORGANIZATION_ASSIGNMENT ( #226, #180, ( #203 ) ) ;
#103 = DIRECTION ( 'NONE',  ( 0.000000000000000000, 0.000000000000000000, 1.000000000000000000 ) ) ;
#104 = ORGANIZATION ( 'NEURÈENÝ', 'NEURÈENÝ', '' ) ;
#105 = DIRECTION ( 'NONE',  ( -0.000000000000000000, -0.000000000000000000, -1.000000000000000000 ) ) ;
#106 = DIRECTION ( 'NONE',  ( 0.000000000000000000, 0.000000000000000000, 1.000000000000000000 ) ) ;
#107 = VERTEX_POINT ( 'NONE', #151 ) ;
#108 = CYLINDRICAL_SURFACE ( 'NONE', #198, 9.000000000000000000 ) ;
#109 = CARTESIAN_POINT ( 'NONE',  ( 0.000000000000000000, 0.000000000000000000, 7.000000000000000000 ) ) ;
#110 = ORIENTED_EDGE ( 'NONE', *, *, #65, .T. ) ;
#111 = CARTESIAN_POINT ( 'NONE',  ( -9.000000000000000000, 0.000000000000000000, 7.000000000000000000 ) ) ;
#112 = FACE_OUTER_BOUND ( 'NONE', #254, .T. ) ;
#113 = CIRCLE ( 'NONE', #54, 6.099999999999999645 ) ;
#114 = AXIS2_PLACEMENT_3D ( 'NONE', #168, #106, #165 ) ;
#115 = DIRECTION ( 'NONE',  ( 1.000000000000000000, 0.000000000000000000, 0.000000000000000000 ) ) ;
#116 = ORIENTED_EDGE ( 'NONE', *, *, #16, .T. ) ;
#117 = EDGE_CURVE ( 'NONE', #141, #82, #84, .T. ) ;
#118 = CALENDAR_DATE ( 2023, 13, 2 ) ;
#119 = LINE ( 'NONE', #25, #255 ) ;
#120 = APPROVAL_DATE_TIME ( #43, #22 ) ;
#121 = MECHANICAL_CONTEXT ( 'NONE', #245, 'mechanical' ) ;
#122 = ADVANCED_FACE ( 'NONE', ( #14 ), #89, .T. ) ;
#123 = ORIENTED_EDGE ( 'NONE', *, *, #195, .F. ) ;
#124 = PLANE ( 'NONE',  #23 ) ;
#125 = AXIS2_PLACEMENT_3D ( 'NONE', #189, #8, #52 ) ;
#126 = FACE_OUTER_BOUND ( 'NONE', #205, .T. ) ;
#127 = DIRECTION ( 'NONE',  ( 1.000000000000000000, 0.000000000000000000, -0.000000000000000000 ) ) ;
#128 = CARTESIAN_POINT ( 'NONE',  ( -6.099999999999999645, 0.000000000000000000, 315.0000000000000000 ) ) ;
#129 = ORIENTED_EDGE ( 'NONE', *, *, #38, .T. ) ;
#130 =( GEOMETRIC_REPRESENTATION_CONTEXT ( 3 ) GLOBAL_UNCERTAINTY_ASSIGNED_CONTEXT ( ( #48 ) ) GLOBAL_UNIT_ASSIGNED_CONTEXT ( ( #80, #158, #182 ) ) REPRESENTATION_CONTEXT ( 'NONE', 'WORKASPACE' ) );
#131 = LINE ( 'NONE', #152, #172 ) ;
#132 = DIRECTION ( 'NONE',  ( -1.000000000000000000, 0.000000000000000000, 0.000000000000000000 ) ) ;
#133 = APPLICATION_PROTOCOL_DEFINITION ( 'international standard', 'config_control_design', 1994, #245 ) ;
#134 = APPROVAL_ROLE ( '' ) ;
#135 = ORIENTED_EDGE ( 'NONE', *, *, #68, .T. ) ;
#136 = DATE_AND_TIME ( #118, #83 ) ;
#137 = EDGE_LOOP ( 'NONE', ( #21, #175, #157, #116 ) ) ;
#138 = CARTESIAN_POINT ( 'NONE',  ( 0.000000000000000000, 0.000000000000000000, 0.000000000000000000 ) ) ;
#139 = AXIS2_PLACEMENT_3D ( 'NONE', #209, #193, #132 ) ;
#140 = PERSON_AND_ORGANIZATION ( #36, #104 ) ;
#141 = VERTEX_POINT ( 'NONE', #128 ) ;
#142 = CC_DESIGN_DATE_AND_TIME_ASSIGNMENT ( #95, #174, ( #153 ) ) ;
#143 = FACE_BOUND ( 'NONE', #67, .T. ) ;
#144 = DATE_AND_TIME ( #7, #187 ) ;
#145 = APPROVAL_PERSON_ORGANIZATION ( #242, #22, #2 ) ;
#146 = CC_DESIGN_DATE_AND_TIME_ASSIGNMENT ( #136, #24, ( #96 ) ) ;
#147 = PLANE ( 'NONE',  #56 ) ;
#148 = VECTOR ( 'NONE', #105, 1000.000000000000000 ) ;
#149 = LOCAL_TIME ( 12, 28, 58.00000000000000000, #93 ) ;
#150 = CARTESIAN_POINT ( 'NONE',  ( 0.000000000000000000, 0.000000000000000000, 0.000000000000000000 ) ) ;
#151 = CARTESIAN_POINT ( 'NONE',  ( 6.099999999999999645, 7.470345474798854293E-16, 7.000000000000000000 ) ) ;
#152 = CARTESIAN_POINT ( 'NONE',  ( 9.000000000000000000, 1.102182119232617714E-15, 7.000000000000000000 ) ) ;
#153 = PRODUCT_DEFINITION ( 'NEZNÁMÝ', '', #50, #186 ) ;
#154 = CARTESIAN_POINT ( 'NONE',  ( 0.000000000000000000, 0.000000000000000000, 0.000000000000000000 ) ) ;
#155 = AXIS2_PLACEMENT_3D ( 'NONE', #247, #103, #9 ) ;
#156 = PERSON_AND_ORGANIZATION_ROLE ( 'creator' ) ;
#157 = ORIENTED_EDGE ( 'NONE', *, *, #5, .T. ) ;
#158 =( NAMED_UNIT ( * ) PLANE_ANGLE_UNIT ( ) SI_UNIT ( $, .RADIAN. ) );
#159 = DIRECTION ( 'NONE',  ( 0.000000000000000000, 0.000000000000000000, 1.000000000000000000 ) ) ;
#160 = COORDINATED_UNIVERSAL_TIME_OFFSET ( 1, 0, .AHEAD. ) ;
#161 = EDGE_LOOP ( 'NONE', ( #34, #194 ) ) ;
#162 = VECTOR ( 'NONE', #57, 1000.000000000000000 ) ;
#163 = ORIENTED_EDGE ( 'NONE', *, *, #5, .F. ) ;
#164 = AXIS2_PLACEMENT_3D ( 'NONE', #32, #235, #88 ) ;
#165 = DIRECTION ( 'NONE',  ( 1.000000000000000000, 0.000000000000000000, 0.000000000000000000 ) ) ;
#166 = FACE_OUTER_BOUND ( 'NONE', #137, .T. ) ;
#167 = EDGE_CURVE ( 'NONE', #10, #58, #73, .T. ) ;
#168 = CARTESIAN_POINT ( 'NONE',  ( 0.000000000000000000, 0.000000000000000000, 315.0000000000000000 ) ) ;
#169 = CARTESIAN_POINT ( 'NONE',  ( 0.000000000000000000, 0.000000000000000000, 315.0000000000000000 ) ) ;
#170 = CARTESIAN_POINT ( 'NONE',  ( 0.000000000000000000, 0.000000000000000000, 0.000000000000000000 ) ) ;
#171 = ADVANCED_FACE ( 'NONE', ( #112 ), #147, .T. ) ;
#172 = VECTOR ( 'NONE', #70, 1000.000000000000000 ) ;
#173 = PLANE ( 'NONE',  #6 ) ;
#174 = DATE_TIME_ROLE ( 'creation_date' ) ;
#175 = ORIENTED_EDGE ( 'NONE', *, *, #117, .F. ) ;
#176 = CALENDAR_DATE ( 2023, 13, 2 ) ;
#177 = CC_DESIGN_APPROVAL ( #219, ( #96 ) ) ;
#178 = EDGE_LOOP ( 'NONE', ( #15, #4, #1, #49 ) ) ;
#179 = MANIFOLD_SOLID_BREP ( 'Pøidat vysunutím3', #211 ) ;
#180 = PERSON_AND_ORGANIZATION_ROLE ( 'design_owner' ) ;
#181 = CARTESIAN_POINT ( 'NONE',  ( 9.000000000000000000, 1.102182119232617714E-15, 7.000000000000000000 ) ) ;
#182 =( NAMED_UNIT ( * ) SI_UNIT ( $, .STERADIAN. ) SOLID_ANGLE_UNIT ( ) );
#183 = PRODUCT_RELATED_PRODUCT_CATEGORY ( 'detail', '', ( #203 ) ) ;
#184 = DIRECTION ( 'NONE',  ( 1.000000000000000000, 0.000000000000000000, 0.000000000000000000 ) ) ;
#185 = LOCAL_TIME ( 12, 28, 58.00000000000000000, #76 ) ;
#186 = DESIGN_CONTEXT ( 'detailed design', #19, 'design' ) ;
#187 = LOCAL_TIME ( 12, 28, 58.00000000000000000, #100 ) ;
#188 = SHAPE_DEFINITION_REPRESENTATION ( #251, #221 ) ;
#189 = CARTESIAN_POINT ( 'NONE',  ( 0.000000000000000000, 0.000000000000000000, 7.000000000000000000 ) ) ;
#190 = ORIENTED_EDGE ( 'NONE', *, *, #117, .T. ) ;
#191 = DIRECTION ( 'NONE',  ( 0.000000000000000000, 0.000000000000000000, 1.000000000000000000 ) ) ;
#192 = CC_DESIGN_APPROVAL ( #22, ( #50 ) ) ;
#193 = DIRECTION ( 'NONE',  ( -0.000000000000000000, -0.000000000000000000, -1.000000000000000000 ) ) ;
#194 = ORIENTED_EDGE ( 'NONE', *, *, #38, .F. ) ;
#195 = EDGE_CURVE ( 'NONE', #58, #202, #92, .T. ) ;
#196 = FACE_OUTER_BOUND ( 'NONE', #161, .T. ) ;
#197 = DIRECTION ( 'NONE',  ( 0.000000000000000000, 0.000000000000000000, 1.000000000000000000 ) ) ;
#198 = AXIS2_PLACEMENT_3D ( 'NONE', #109, #91, #218 ) ;
#199 = APPROVAL_PERSON_ORGANIZATION ( #228, #219, #207 ) ;
#200 = CARTESIAN_POINT ( 'NONE',  ( 0.000000000000000000, 0.000000000000000000, 7.000000000000000000 ) ) ;
#201 = ADVANCED_FACE ( 'NONE', ( #196 ), #173, .F. ) ;
#202 = VERTEX_POINT ( 'NONE', #90 ) ;
#203 = PRODUCT ( '1e00', '1e00', '', ( #121 ) ) ;
#204 = PERSON_AND_ORGANIZATION_ROLE ( 'creator' ) ;
#205 = EDGE_LOOP ( 'NONE', ( #135, #64 ) ) ;
#206 = EDGE_CURVE ( 'NONE', #107, #94, #113, .T. ) ;
#207 = APPROVAL_ROLE ( '' ) ;
#208 = COORDINATED_UNIVERSAL_TIME_OFFSET ( 1, 0, .AHEAD. ) ;
#209 = CARTESIAN_POINT ( 'NONE',  ( 0.000000000000000000, 0.000000000000000000, 315.0000000000000000 ) ) ;
#210 = AXIS2_PLACEMENT_3D ( 'NONE', #169, #59, #31 ) ;
#211 = CLOSED_SHELL ( 'NONE', ( #122, #42, #85, #47, #201, #81, #171 ) ) ;
#212 = DIRECTION ( 'NONE',  ( 0.000000000000000000, 0.000000000000000000, 1.000000000000000000 ) ) ;
#213 = CARTESIAN_POINT ( 'NONE',  ( -9.000000000000000000, 0.000000000000000000, 7.000000000000000000 ) ) ;
#214 = FACE_OUTER_BOUND ( 'NONE', #216, .T. ) ;
#215 = CYLINDRICAL_SURFACE ( 'NONE', #125, 9.000000000000000000 ) ;
#216 = EDGE_LOOP ( 'NONE', ( #62, #243, #129, #123 ) ) ;
#217 = DIRECTION ( 'NONE',  ( 0.000000000000000000, 0.000000000000000000, 1.000000000000000000 ) ) ;
#218 = DIRECTION ( 'NONE',  ( -1.000000000000000000, 0.000000000000000000, 0.000000000000000000 ) ) ;
#219 = APPROVAL ( #63, 'NEURÈENÝ' ) ;
#220 = CARTESIAN_POINT ( 'NONE',  ( -6.099999999999999645, 0.000000000000000000, 7.000000000000000000 ) ) ;
#221 = ADVANCED_BREP_SHAPE_REPRESENTATION ( '1e00', ( #179, #17 ), #130 ) ;
#222 = APPROVAL_PERSON_ORGANIZATION ( #140, #71, #134 ) ;
#223 = CALENDAR_DATE ( 2023, 13, 2 ) ;
#224 = EDGE_LOOP ( 'NONE', ( #44, #77, #28, #163 ) ) ;
#225 = ORIENTED_EDGE ( 'NONE', *, *, #16, .F. ) ;
#226 = PERSON_AND_ORGANIZATION ( #36, #104 ) ;
#227 = DIRECTION ( 'NONE',  ( 0.000000000000000000, 0.000000000000000000, 1.000000000000000000 ) ) ;
#228 = PERSON_AND_ORGANIZATION ( #36, #104 ) ;
#229 = LINE ( 'NONE', #86, #148 ) ;
#230 = CC_DESIGN_PERSON_AND_ORGANIZATION_ASSIGNMENT ( #61, #66, ( #96 ) ) ;
#231 = CARTESIAN_POINT ( 'NONE',  ( 6.099999999999999645, 7.470345474798854293E-16, 315.0000000000000000 ) ) ;
#232 = CARTESIAN_POINT ( 'NONE',  ( 0.000000000000000000, 0.000000000000000000, 315.0000000000000000 ) ) ;
#233 = CIRCLE ( 'NONE', #35, 9.000000000000000000 ) ;
#234 = DIRECTION ( 'NONE',  ( 0.000000000000000000, 0.000000000000000000, 1.000000000000000000 ) ) ;
#235 = DIRECTION ( 'NONE',  ( 0.000000000000000000, 0.000000000000000000, 1.000000000000000000 ) ) ;
#236 = CC_DESIGN_APPROVAL ( #71, ( #153 ) ) ;
#237 = PERSON_AND_ORGANIZATION_ROLE ( 'design_supplier' ) ;
#238 = ORIENTED_EDGE ( 'NONE', *, *, #206, .F. ) ;
#239 = SECURITY_CLASSIFICATION_LEVEL ( 'unclassified' ) ;
#240 = APPROVAL_DATE_TIME ( #101, #71 ) ;
#241 = DIRECTION ( 'NONE',  ( 1.000000000000000000, 0.000000000000000000, 0.000000000000000000 ) ) ;
#242 = PERSON_AND_ORGANIZATION ( #36, #104 ) ;
#243 = ORIENTED_EDGE ( 'NONE', *, *, #97, .T. ) ;
#244 = EDGE_CURVE ( 'NONE', #202, #79, #233, .T. ) ;
#245 = APPLICATION_CONTEXT ( 'configuration controlled 3d designs of mechanical parts and assemblies' ) ;
#246 = CIRCLE ( 'NONE', #87, 9.000000000000000000 ) ;
#247 = CARTESIAN_POINT ( 'NONE',  ( 0.000000000000000000, 0.000000000000000000, 7.000000000000000000 ) ) ;
#248 = CYLINDRICAL_SURFACE ( 'NONE', #139, 6.099999999999999645 ) ;
#249 = CARTESIAN_POINT ( 'NONE',  ( 9.000000000000000000, 1.102182119232617714E-15, 0.000000000000000000 ) ) ;
#250 = DIRECTION ( 'NONE',  ( 1.000000000000000000, 0.000000000000000000, 0.000000000000000000 ) ) ;
#251 = PRODUCT_DEFINITION_SHAPE ( 'NONE', 'NONE',  #153 ) ;
#252 = CC_DESIGN_PERSON_AND_ORGANIZATION_ASSIGNMENT ( #78, #204, ( #50 ) ) ;
#253 = APPLICATION_PROTOCOL_DEFINITION ( 'international standard', 'config_control_design', 1994, #19 ) ;
#254 = EDGE_LOOP ( 'NONE', ( #190, #110 ) ) ;
#255 = VECTOR ( 'NONE', #99, 1000.000000000000000 ) ;
ENDSEC;
END-ISO-10303-21;
