ISO-10303-21;
HEADER;
FILE_DESCRIPTION (( 'STEP AP203' ),
    '1' );
FILE_NAME ('6e15.STEP',
    '2023-02-13T13:48:24',
    ( '' ),
    ( '' ),
    'SwSTEP 2.0',
    'SolidWorks 2019',
    '' );
FILE_SCHEMA (( 'CONFIG_CONTROL_DESIGN' ));
ENDSEC;

DATA;
#1 = DATE_TIME_ROLE ( 'creation_date' ) ;
#2 = DIRECTION ( 'NONE',  ( 1.000000000000000000, 0.000000000000000000, 0.000000000000000000 ) ) ;
#3 = LOCAL_TIME ( 14, 48, 24.00000000000000000, #255 ) ;
#4 = EDGE_CURVE ( 'NONE', #247, #166, #75, .T. ) ;
#5 = DIRECTION ( 'NONE',  ( 1.000000000000000000, 0.000000000000000000, 0.000000000000000000 ) ) ;
#6 = CARTESIAN_POINT ( 'NONE',  ( 0.000000000000000000, 0.000000000000000000, 200.0000000000000000 ) ) ;
#7 = FACE_BOUND ( 'NONE', #13, .T. ) ;
#8 = CARTESIAN_POINT ( 'NONE',  ( 0.000000000000000000, 0.000000000000000000, 200.0000000000000000 ) ) ;
#9 = EDGE_LOOP ( 'NONE', ( #186, #47 ) ) ;
#10 = VECTOR ( 'NONE', #157, 1000.000000000000000 ) ;
#11 = EDGE_CURVE ( 'NONE', #166, #247, #106, .T. ) ;
#12 = CARTESIAN_POINT ( 'NONE',  ( 0.000000000000000000, 0.000000000000000000, 0.000000000000000000 ) ) ;
#13 = EDGE_LOOP ( 'NONE', ( #50, #58 ) ) ;
#14 = DIRECTION ( 'NONE',  ( 1.000000000000000000, 0.000000000000000000, 0.000000000000000000 ) ) ;
#15 = CYLINDRICAL_SURFACE ( 'NONE', #195, 7.000000000000000000 ) ;
#16 = EDGE_CURVE ( 'NONE', #67, #227, #136, .T. ) ;
#17 = ORIENTED_EDGE ( 'NONE', *, *, #185, .T. ) ;
#18 = APPROVAL_DATE_TIME ( #115, #248 ) ;
#19 = AXIS2_PLACEMENT_3D ( 'NONE', #8, #164, #122 ) ;
#20 = APPROVAL_ROLE ( '' ) ;
#21 = CARTESIAN_POINT ( 'NONE',  ( -4.250000000000000000, 0.000000000000000000, 6.500000000000000000 ) ) ;
#22 = LOCAL_TIME ( 14, 48, 24.00000000000000000, #57 ) ;
#23 = APPLICATION_PROTOCOL_DEFINITION ( 'international standard', 'config_control_design', 1994, #51 ) ;
#24 = EDGE_CURVE ( 'NONE', #76, #103, #147, .T. ) ;
#25 = PLANE ( 'NONE',  #26 ) ;
#26 = AXIS2_PLACEMENT_3D ( 'NONE', #46, #97, #82 ) ;
#27 = ORIENTED_EDGE ( 'NONE', *, *, #11, .T. ) ;
#28 = EDGE_LOOP ( 'NONE', ( #178, #149, #131, #145 ) ) ;
#29 = DIRECTION ( 'NONE',  ( 1.000000000000000000, 0.000000000000000000, 0.000000000000000000 ) ) ;
#30 = ORIENTED_EDGE ( 'NONE', *, *, #219, .F. ) ;
#31 =( LENGTH_UNIT ( ) NAMED_UNIT ( * ) SI_UNIT ( .MILLI., .METRE. ) );
#32 = AXIS2_PLACEMENT_3D ( 'NONE', #235, #128, #14 ) ;
#33 = PERSON_AND_ORGANIZATION_ROLE ( 'design_owner' ) ;
#34 = CC_DESIGN_DATE_AND_TIME_ASSIGNMENT ( #92, #1, ( #66 ) ) ;
#35 = DIRECTION ( 'NONE',  ( 0.000000000000000000, 0.000000000000000000, 1.000000000000000000 ) ) ;
#36 = PERSON_AND_ORGANIZATION ( #94, #243 ) ;
#37 = AXIS2_PLACEMENT_3D ( 'NONE', #232, #35, #129 ) ;
#38 = CC_DESIGN_SECURITY_CLASSIFICATION ( #220, ( #188 ) ) ;
#39 = DIRECTION ( 'NONE',  ( -1.000000000000000000, 0.000000000000000000, 0.000000000000000000 ) ) ;
#40 = PERSON_AND_ORGANIZATION ( #94, #243 ) ;
#41 = ADVANCED_FACE ( 'NONE', ( #242 ), #244, .T. ) ;
#42 = ADVANCED_FACE ( 'NONE', ( #61 ), #222, .T. ) ;
#43 = APPLICATION_CONTEXT ( 'configuration controlled 3d designs of mechanical parts and assemblies' ) ;
#44 = FACE_OUTER_BOUND ( 'NONE', #230, .T. ) ;
#45 = ORIENTED_EDGE ( 'NONE', *, *, #116, .T. ) ;
#46 = CARTESIAN_POINT ( 'NONE',  ( 0.000000000000000000, 0.000000000000000000, 6.500000000000000000 ) ) ;
#47 = ORIENTED_EDGE ( 'NONE', *, *, #253, .F. ) ;
#48 = LOCAL_TIME ( 14, 48, 24.00000000000000000, #183 ) ;
#49 = EDGE_CURVE ( 'NONE', #103, #124, #198, .T. ) ;
#50 = ORIENTED_EDGE ( 'NONE', *, *, #11, .F. ) ;
#51 = APPLICATION_CONTEXT ( 'configuration controlled 3d designs of mechanical parts and assemblies' ) ;
#52 = CARTESIAN_POINT ( 'NONE',  ( -7.000000000000000000, 0.000000000000000000, 6.500000000000000000 ) ) ;
#53 = EDGE_LOOP ( 'NONE', ( #181, #108, #250, #114 ) ) ;
#54 =( NAMED_UNIT ( * ) SI_UNIT ( $, .STERADIAN. ) SOLID_ANGLE_UNIT ( ) );
#55 = PERSON_AND_ORGANIZATION ( #94, #243 ) ;
#56 = LOCAL_TIME ( 14, 48, 24.00000000000000000, #77 ) ;
#57 = COORDINATED_UNIVERSAL_TIME_OFFSET ( 1, 0, .AHEAD. ) ;
#58 = ORIENTED_EDGE ( 'NONE', *, *, #4, .F. ) ;
#59 = APPROVAL_ROLE ( '' ) ;
#60 = APPROVAL ( #192, 'NEURÈENÝ' ) ;
#61 = FACE_OUTER_BOUND ( 'NONE', #162, .T. ) ;
#62 = UNCERTAINTY_MEASURE_WITH_UNIT (LENGTH_MEASURE( 1.000000000000000082E-05 ), #31, 'distance_accuracy_value', 'NONE');
#63 = CARTESIAN_POINT ( 'NONE',  ( 4.250000000000000000, 5.204748896376250699E-16, 200.0000000000000000 ) ) ;
#64 = ORIENTED_EDGE ( 'NONE', *, *, #202, .T. ) ;
#65 = DIRECTION ( 'NONE',  ( -0.000000000000000000, -0.000000000000000000, -1.000000000000000000 ) ) ;
#66 = PRODUCT_DEFINITION ( 'NEZNÁMÝ', '', #188, #163 ) ;
#67 = VERTEX_POINT ( 'NONE', #168 ) ;
#68 = FACE_OUTER_BOUND ( 'NONE', #53, .T. ) ;
#69 = EDGE_CURVE ( 'NONE', #67, #166, #229, .T. ) ;
#70 =( NAMED_UNIT ( * ) PLANE_ANGLE_UNIT ( ) SI_UNIT ( $, .RADIAN. ) );
#71 = DIRECTION ( 'NONE',  ( 1.000000000000000000, 0.000000000000000000, 0.000000000000000000 ) ) ;
#72 = CALENDAR_DATE ( 2023, 13, 2 ) ;
#73 = DATE_AND_TIME ( #133, #140 ) ;
#74 = PERSON_AND_ORGANIZATION_ROLE ( 'creator' ) ;
#75 = CIRCLE ( 'NONE', #88, 4.250000000000000000 ) ;
#76 = VERTEX_POINT ( 'NONE', #52 ) ;
#77 = COORDINATED_UNIVERSAL_TIME_OFFSET ( 1, 0, .AHEAD. ) ;
#78 = CARTESIAN_POINT ( 'NONE',  ( 0.000000000000000000, 0.000000000000000000, 6.500000000000000000 ) ) ;
#79 = CC_DESIGN_APPROVAL ( #248, ( #66 ) ) ;
#80 = CARTESIAN_POINT ( 'NONE',  ( 0.000000000000000000, 0.000000000000000000, 0.000000000000000000 ) ) ;
#81 = CARTESIAN_POINT ( 'NONE',  ( 4.250000000000000000, 5.204748896376250699E-16, 6.500000000000000000 ) ) ;
#82 = DIRECTION ( 'NONE',  ( 1.000000000000000000, 0.000000000000000000, -0.000000000000000000 ) ) ;
#83 = AXIS2_PLACEMENT_3D ( 'NONE', #167, #184, #146 ) ;
#84 = DIRECTION ( 'NONE',  ( 0.000000000000000000, 0.000000000000000000, 1.000000000000000000 ) ) ;
#85 = CARTESIAN_POINT ( 'NONE',  ( 7.000000000000000000, 8.572527594031471218E-16, 6.500000000000000000 ) ) ;
#86 = ORIENTED_EDGE ( 'NONE', *, *, #24, .F. ) ;
#87 = AXIS2_PLACEMENT_3D ( 'NONE', #80, #155, #246 ) ;
#88 = AXIS2_PLACEMENT_3D ( 'NONE', #148, #169, #71 ) ;
#89 = CARTESIAN_POINT ( 'NONE',  ( -7.000000000000000000, 0.000000000000000000, 6.500000000000000000 ) ) ;
#90 = CC_DESIGN_PERSON_AND_ORGANIZATION_ASSIGNMENT ( #240, #74, ( #188 ) ) ;
#91 = PERSON_AND_ORGANIZATION_ROLE ( 'creator' ) ;
#92 = DATE_AND_TIME ( #72, #3 ) ;
#93 = APPROVAL ( #110, 'NEURÈENÝ' ) ;
#94 = PERSON ( 'NEURÈENÝ', 'NEURÈENÝ', 'NEURÈENÝ', ('NEURÈENÝ'), ('NEURÈENÝ'), ('NEURÈENÝ') ) ;
#95 = PERSON_AND_ORGANIZATION ( #94, #243 ) ;
#96 = CARTESIAN_POINT ( 'NONE',  ( 4.250000000000000000, 5.204748896376250699E-16, 200.0000000000000000 ) ) ;
#97 = DIRECTION ( 'NONE',  ( 0.000000000000000000, 0.000000000000000000, 1.000000000000000000 ) ) ;
#98 = ORIENTED_EDGE ( 'NONE', *, *, #176, .T. ) ;
#99 = APPROVAL_DATE_TIME ( #241, #60 ) ;
#100 = DIRECTION ( 'NONE',  ( 1.000000000000000000, 0.000000000000000000, -0.000000000000000000 ) ) ;
#101 = ADVANCED_FACE ( 'NONE', ( #44 ), #125, .T. ) ;
#102 = CIRCLE ( 'NONE', #223, 7.000000000000000000 ) ;
#103 = VERTEX_POINT ( 'NONE', #85 ) ;
#104 = DIRECTION ( 'NONE',  ( 0.000000000000000000, 0.000000000000000000, 1.000000000000000000 ) ) ;
#105 = CIRCLE ( 'NONE', #87, 7.000000000000000000 ) ;
#106 = CIRCLE ( 'NONE', #118, 4.250000000000000000 ) ;
#107 = CC_DESIGN_APPROVAL ( #60, ( #220 ) ) ;
#108 = ORIENTED_EDGE ( 'NONE', *, *, #219, .T. ) ;
#109 = CYLINDRICAL_SURFACE ( 'NONE', #83, 4.250000000000000000 ) ;
#110 = APPROVAL_STATUS ( 'not_yet_approved' ) ;
#111 = MANIFOLD_SOLID_BREP ( 'Pøidat vysunutím3', #191 ) ;
#112 = APPROVAL_PERSON_ORGANIZATION ( #36, #93, #59 ) ;
#113 = PERSON_AND_ORGANIZATION ( #94, #243 ) ;
#114 = ORIENTED_EDGE ( 'NONE', *, *, #69, .F. ) ;
#115 = DATE_AND_TIME ( #252, #48 ) ;
#116 = EDGE_CURVE ( 'NONE', #227, #67, #134, .T. ) ;
#117 = PERSON_AND_ORGANIZATION_ROLE ( 'design_supplier' ) ;
#118 = AXIS2_PLACEMENT_3D ( 'NONE', #187, #213, #171 ) ;
#119 = CIRCLE ( 'NONE', #238, 7.000000000000000000 ) ;
#120 = CC_DESIGN_PERSON_AND_ORGANIZATION_ASSIGNMENT ( #113, #91, ( #66 ) ) ;
#121 = APPROVAL_ROLE ( '' ) ;
#122 = DIRECTION ( 'NONE',  ( -1.000000000000000000, 0.000000000000000000, 0.000000000000000000 ) ) ;
#123 = CARTESIAN_POINT ( 'NONE',  ( -4.250000000000000000, 0.000000000000000000, 200.0000000000000000 ) ) ;
#124 = VERTEX_POINT ( 'NONE', #225 ) ;
#125 = CYLINDRICAL_SURFACE ( 'NONE', #19, 4.250000000000000000 ) ;
#126 = AXIS2_PLACEMENT_3D ( 'NONE', #207, #84, #29 ) ;
#127 = MECHANICAL_CONTEXT ( 'NONE', #43, 'mechanical' ) ;
#128 = DIRECTION ( 'NONE',  ( 0.000000000000000000, 0.000000000000000000, 1.000000000000000000 ) ) ;
#129 = DIRECTION ( 'NONE',  ( 1.000000000000000000, 0.000000000000000000, -0.000000000000000000 ) ) ;
#130 = PERSON_AND_ORGANIZATION ( #94, #243 ) ;
#131 = ORIENTED_EDGE ( 'NONE', *, *, #253, .T. ) ;
#132 = DATE_AND_TIME ( #217, #22 ) ;
#133 = CALENDAR_DATE ( 2023, 13, 2 ) ;
#134 = CIRCLE ( 'NONE', #126, 4.250000000000000000 ) ;
#135 = DIRECTION ( 'NONE',  ( -0.000000000000000000, -0.000000000000000000, -1.000000000000000000 ) ) ;
#136 = CIRCLE ( 'NONE', #32, 4.250000000000000000 ) ;
#137 = ADVANCED_FACE ( 'NONE', ( #7, #138 ), #25, .T. ) ;
#138 = FACE_OUTER_BOUND ( 'NONE', #203, .T. ) ;
#139 = VECTOR ( 'NONE', #65, 1000.000000000000000 ) ;
#140 = LOCAL_TIME ( 14, 48, 24.00000000000000000, #150 ) ;
#141 = CARTESIAN_POINT ( 'NONE',  ( -7.000000000000000000, 0.000000000000000000, 0.000000000000000000 ) ) ;
#142 = CC_DESIGN_PERSON_AND_ORGANIZATION_ASSIGNMENT ( #130, #254, ( #220 ) ) ;
#143 = ORIENTED_EDGE ( 'NONE', *, *, #16, .T. ) ;
#144 = CARTESIAN_POINT ( 'NONE',  ( 0.000000000000000000, 0.000000000000000000, 0.000000000000000000 ) ) ;
#145 = ORIENTED_EDGE ( 'NONE', *, *, #202, .F. ) ;
#146 = DIRECTION ( 'NONE',  ( -1.000000000000000000, 0.000000000000000000, 0.000000000000000000 ) ) ;
#147 = CIRCLE ( 'NONE', #179, 7.000000000000000000 ) ;
#148 = CARTESIAN_POINT ( 'NONE',  ( 0.000000000000000000, 0.000000000000000000, 6.500000000000000000 ) ) ;
#149 = ORIENTED_EDGE ( 'NONE', *, *, #49, .T. ) ;
#150 = COORDINATED_UNIVERSAL_TIME_OFFSET ( 1, 0, .AHEAD. ) ;
#151 = CALENDAR_DATE ( 2023, 13, 2 ) ;
#152 = AXIS2_PLACEMENT_3D ( 'NONE', #78, #154, #196 ) ;
#153 = APPROVAL_PERSON_ORGANIZATION ( #95, #248, #121 ) ;
#154 = DIRECTION ( 'NONE',  ( -0.000000000000000000, -0.000000000000000000, -1.000000000000000000 ) ) ;
#155 = DIRECTION ( 'NONE',  ( 0.000000000000000000, 0.000000000000000000, 1.000000000000000000 ) ) ;
#156 = DIRECTION ( 'NONE',  ( 0.000000000000000000, 0.000000000000000000, 1.000000000000000000 ) ) ;
#157 = DIRECTION ( 'NONE',  ( -0.000000000000000000, -0.000000000000000000, -1.000000000000000000 ) ) ;
#158 = ADVANCED_FACE ( 'NONE', ( #161 ), #212, .F. ) ;
#159 = SHAPE_DEFINITION_REPRESENTATION ( #177, #200 ) ;
#160 = LINE ( 'NONE', #89, #233 ) ;
#161 = FACE_OUTER_BOUND ( 'NONE', #9, .T. ) ;
#162 = EDGE_LOOP ( 'NONE', ( #143, #45 ) ) ;
#163 = DESIGN_CONTEXT ( 'detailed design', #51, 'design' ) ;
#164 = DIRECTION ( 'NONE',  ( -0.000000000000000000, -0.000000000000000000, -1.000000000000000000 ) ) ;
#165 = ADVANCED_FACE ( 'NONE', ( #214 ), #15, .T. ) ;
#166 = VERTEX_POINT ( 'NONE', #21 ) ;
#167 = CARTESIAN_POINT ( 'NONE',  ( 0.000000000000000000, 0.000000000000000000, 200.0000000000000000 ) ) ;
#168 = CARTESIAN_POINT ( 'NONE',  ( -4.250000000000000000, 0.000000000000000000, 200.0000000000000000 ) ) ;
#169 = DIRECTION ( 'NONE',  ( 0.000000000000000000, 0.000000000000000000, 1.000000000000000000 ) ) ;
#170 = CARTESIAN_POINT ( 'NONE',  ( 0.000000000000000000, 0.000000000000000000, 6.500000000000000000 ) ) ;
#171 = DIRECTION ( 'NONE',  ( 1.000000000000000000, 0.000000000000000000, 0.000000000000000000 ) ) ;
#172 = DIRECTION ( 'NONE',  ( -0.000000000000000000, -0.000000000000000000, -1.000000000000000000 ) ) ;
#173 = APPROVAL_DATE_TIME ( #73, #93 ) ;
#174 = CARTESIAN_POINT ( 'NONE',  ( 0.000000000000000000, 0.000000000000000000, 6.500000000000000000 ) ) ;
#175 = APPROVAL_STATUS ( 'not_yet_approved' ) ;
#176 = EDGE_CURVE ( 'NONE', #103, #76, #102, .T. ) ;
#177 = PRODUCT_DEFINITION_SHAPE ( 'NONE', 'NONE',  #66 ) ;
#178 = ORIENTED_EDGE ( 'NONE', *, *, #176, .F. ) ;
#179 = AXIS2_PLACEMENT_3D ( 'NONE', #174, #190, #2 ) ;
#180 = DIRECTION ( 'NONE',  ( -0.000000000000000000, -0.000000000000000000, -1.000000000000000000 ) ) ;
#181 = ORIENTED_EDGE ( 'NONE', *, *, #116, .F. ) ;
#182 = PRODUCT_RELATED_PRODUCT_CATEGORY ( 'detail', '', ( #226 ) ) ;
#183 = COORDINATED_UNIVERSAL_TIME_OFFSET ( 1, 0, .AHEAD. ) ;
#184 = DIRECTION ( 'NONE',  ( -0.000000000000000000, -0.000000000000000000, -1.000000000000000000 ) ) ;
#185 = EDGE_CURVE ( 'NONE', #215, #124, #105, .T. ) ;
#186 = ORIENTED_EDGE ( 'NONE', *, *, #185, .F. ) ;
#187 = CARTESIAN_POINT ( 'NONE',  ( 0.000000000000000000, 0.000000000000000000, 6.500000000000000000 ) ) ;
#188 = PRODUCT_DEFINITION_FORMATION_WITH_SPECIFIED_SOURCE ( 'LIBOVOLNÝ', '', #226, .NOT_KNOWN. ) ;
#189 = CC_DESIGN_PERSON_AND_ORGANIZATION_ASSIGNMENT ( #55, #117, ( #188 ) ) ;
#190 = DIRECTION ( 'NONE',  ( 0.000000000000000000, 0.000000000000000000, 1.000000000000000000 ) ) ;
#191 = CLOSED_SHELL ( 'NONE', ( #236, #165, #41, #137, #158, #101, #42 ) ) ;
#192 = APPROVAL_STATUS ( 'not_yet_approved' ) ;
#193 = CC_DESIGN_DATE_AND_TIME_ASSIGNMENT ( #132, #218, ( #220 ) ) ;
#194 = DIRECTION ( 'NONE',  ( 0.000000000000000000, 0.000000000000000000, 1.000000000000000000 ) ) ;
#195 = AXIS2_PLACEMENT_3D ( 'NONE', #170, #172, #39 ) ;
#196 = DIRECTION ( 'NONE',  ( -1.000000000000000000, 0.000000000000000000, 0.000000000000000000 ) ) ;
#197 = PERSON_AND_ORGANIZATION ( #94, #243 ) ;
#198 = LINE ( 'NONE', #204, #228 ) ;
#199 = EDGE_LOOP ( 'NONE', ( #205, #86, #64, #17 ) ) ;
#200 = ADVANCED_BREP_SHAPE_REPRESENTATION ( '6e15', ( #111, #201 ), #245 ) ;
#201 = AXIS2_PLACEMENT_3D ( 'NONE', #144, #104, #231 ) ;
#202 = EDGE_CURVE ( 'NONE', #76, #215, #160, .T. ) ;
#203 = EDGE_LOOP ( 'NONE', ( #208, #98 ) ) ;
#204 = CARTESIAN_POINT ( 'NONE',  ( 7.000000000000000000, 8.572527594031471218E-16, 6.500000000000000000 ) ) ;
#205 = ORIENTED_EDGE ( 'NONE', *, *, #49, .F. ) ;
#206 = LINE ( 'NONE', #63, #10 ) ;
#207 = CARTESIAN_POINT ( 'NONE',  ( 0.000000000000000000, 0.000000000000000000, 200.0000000000000000 ) ) ;
#208 = ORIENTED_EDGE ( 'NONE', *, *, #24, .T. ) ;
#209 = CC_DESIGN_PERSON_AND_ORGANIZATION_ASSIGNMENT ( #197, #33, ( #226 ) ) ;
#210 = AXIS2_PLACEMENT_3D ( 'NONE', #6, #156, #100 ) ;
#211 = APPLICATION_PROTOCOL_DEFINITION ( 'international standard', 'config_control_design', 1994, #43 ) ;
#212 = PLANE ( 'NONE',  #37 ) ;
#213 = DIRECTION ( 'NONE',  ( 0.000000000000000000, 0.000000000000000000, 1.000000000000000000 ) ) ;
#214 = FACE_OUTER_BOUND ( 'NONE', #28, .T. ) ;
#215 = VERTEX_POINT ( 'NONE', #141 ) ;
#216 = CC_DESIGN_APPROVAL ( #93, ( #188 ) ) ;
#217 = CALENDAR_DATE ( 2023, 13, 2 ) ;
#218 = DATE_TIME_ROLE ( 'classification_date' ) ;
#219 = EDGE_CURVE ( 'NONE', #227, #247, #206, .T. ) ;
#220 = SECURITY_CLASSIFICATION ( '', '', #237 ) ;
#221 = CARTESIAN_POINT ( 'NONE',  ( 0.000000000000000000, 0.000000000000000000, 6.500000000000000000 ) ) ;
#222 = PLANE ( 'NONE',  #210 ) ;
#223 = AXIS2_PLACEMENT_3D ( 'NONE', #221, #194, #5 ) ;
#224 = DIRECTION ( 'NONE',  ( 1.000000000000000000, 0.000000000000000000, 0.000000000000000000 ) ) ;
#225 = CARTESIAN_POINT ( 'NONE',  ( 7.000000000000000000, 8.572527594031471218E-16, 0.000000000000000000 ) ) ;
#226 = PRODUCT ( '6e15', '6e15', '', ( #127 ) ) ;
#227 = VERTEX_POINT ( 'NONE', #96 ) ;
#228 = VECTOR ( 'NONE', #180, 1000.000000000000000 ) ;
#229 = LINE ( 'NONE', #123, #139 ) ;
#230 = EDGE_LOOP ( 'NONE', ( #30, #239, #249, #27 ) ) ;
#231 = DIRECTION ( 'NONE',  ( 1.000000000000000000, 0.000000000000000000, 0.000000000000000000 ) ) ;
#232 = CARTESIAN_POINT ( 'NONE',  ( 0.000000000000000000, 0.000000000000000000, 0.000000000000000000 ) ) ;
#233 = VECTOR ( 'NONE', #135, 1000.000000000000000 ) ;
#234 = APPROVAL_PERSON_ORGANIZATION ( #40, #60, #20 ) ;
#235 = CARTESIAN_POINT ( 'NONE',  ( 0.000000000000000000, 0.000000000000000000, 200.0000000000000000 ) ) ;
#236 = ADVANCED_FACE ( 'NONE', ( #68 ), #109, .T. ) ;
#237 = SECURITY_CLASSIFICATION_LEVEL ( 'unclassified' ) ;
#238 = AXIS2_PLACEMENT_3D ( 'NONE', #12, #251, #224 ) ;
#239 = ORIENTED_EDGE ( 'NONE', *, *, #16, .F. ) ;
#240 = PERSON_AND_ORGANIZATION ( #94, #243 ) ;
#241 = DATE_AND_TIME ( #151, #56 ) ;
#242 = FACE_OUTER_BOUND ( 'NONE', #199, .T. ) ;
#243 = ORGANIZATION ( 'NEURÈENÝ', 'NEURÈENÝ', '' ) ;
#244 = CYLINDRICAL_SURFACE ( 'NONE', #152, 7.000000000000000000 ) ;
#245 =( GEOMETRIC_REPRESENTATION_CONTEXT ( 3 ) GLOBAL_UNCERTAINTY_ASSIGNED_CONTEXT ( ( #62 ) ) GLOBAL_UNIT_ASSIGNED_CONTEXT ( ( #31, #70, #54 ) ) REPRESENTATION_CONTEXT ( 'NONE', 'WORKASPACE' ) );
#246 = DIRECTION ( 'NONE',  ( 1.000000000000000000, 0.000000000000000000, 0.000000000000000000 ) ) ;
#247 = VERTEX_POINT ( 'NONE', #81 ) ;
#248 = APPROVAL ( #175, 'NEURÈENÝ' ) ;
#249 = ORIENTED_EDGE ( 'NONE', *, *, #69, .T. ) ;
#250 = ORIENTED_EDGE ( 'NONE', *, *, #4, .T. ) ;
#251 = DIRECTION ( 'NONE',  ( 0.000000000000000000, 0.000000000000000000, 1.000000000000000000 ) ) ;
#252 = CALENDAR_DATE ( 2023, 13, 2 ) ;
#253 = EDGE_CURVE ( 'NONE', #124, #215, #119, .T. ) ;
#254 = PERSON_AND_ORGANIZATION_ROLE ( 'classification_officer' ) ;
#255 = COORDINATED_UNIVERSAL_TIME_OFFSET ( 1, 0, .AHEAD. ) ;
ENDSEC;
END-ISO-10303-21;
