ISO-10303-21;
HEADER;
FILE_DESCRIPTION (( 'STEP AP203' ),
    '1' );
FILE_NAME ('d575.STEP',
    '2023-02-13T09:44:15',
    ( '' ),
    ( '' ),
    'SwSTEP 2.0',
    'SolidWorks 2019',
    '' );
FILE_SCHEMA (( 'CONFIG_CONTROL_DESIGN' ));
ENDSEC;

DATA;
#1 = DATE_AND_TIME ( #105, #77 ) ;
#2 = ORIENTED_EDGE ( 'NONE', *, *, #249, .T. ) ;
#3 = EDGE_CURVE ( 'NONE', #114, #194, #243, .T. ) ;
#4 = ORGANIZATION ( 'NEURÈENÝ', 'NEURÈENÝ', '' ) ;
#5 = COORDINATED_UNIVERSAL_TIME_OFFSET ( 1, 0, .AHEAD. ) ;
#6 = FACE_OUTER_BOUND ( 'NONE', #213, .T. ) ;
#7 = DIRECTION ( 'NONE',  ( 0.000000000000000000, 0.000000000000000000, 1.000000000000000000 ) ) ;
#8 = CARTESIAN_POINT ( 'NONE',  ( 0.000000000000000000, 0.000000000000000000, 0.000000000000000000 ) ) ;
#9 = PERSON_AND_ORGANIZATION ( #196, #4 ) ;
#10 = ADVANCED_FACE ( 'NONE', ( #6 ), #172, .T. ) ;
#11 = CARTESIAN_POINT ( 'NONE',  ( 0.000000000000000000, 0.000000000000000000, 0.000000000000000000 ) ) ;
#12 = CC_DESIGN_APPROVAL ( #123, ( #231 ) ) ;
#13 = PRODUCT_RELATED_PRODUCT_CATEGORY ( 'detail', '', ( #165 ) ) ;
#14 = AXIS2_PLACEMENT_3D ( 'NONE', #40, #128, #154 ) ;
#15 = APPROVAL_PERSON_ORGANIZATION ( #78, #123, #151 ) ;
#16 = CARTESIAN_POINT ( 'NONE',  ( -8.000000000000000000, 0.000000000000000000, 200.0000000000000000 ) ) ;
#17 = APPROVAL_STATUS ( 'not_yet_approved' ) ;
#18 = EDGE_CURVE ( 'NONE', #60, #212, #200, .T. ) ;
#19 = FACE_BOUND ( 'NONE', #121, .T. ) ;
#20 = DIRECTION ( 'NONE',  ( 1.000000000000000000, 0.000000000000000000, 0.000000000000000000 ) ) ;
#21 = CC_DESIGN_PERSON_AND_ORGANIZATION_ASSIGNMENT ( #107, #37, ( #69 ) ) ;
#22 = DIRECTION ( 'NONE',  ( 1.000000000000000000, 0.000000000000000000, -0.000000000000000000 ) ) ;
#23 = AXIS2_PLACEMENT_3D ( 'NONE', #113, #245, #44 ) ;
#24 = DIRECTION ( 'NONE',  ( 0.000000000000000000, 0.000000000000000000, 1.000000000000000000 ) ) ;
#25 = DIRECTION ( 'NONE',  ( -1.000000000000000000, 0.000000000000000000, 0.000000000000000000 ) ) ;
#26 = DIRECTION ( 'NONE',  ( 0.000000000000000000, 0.000000000000000000, 1.000000000000000000 ) ) ;
#27 = APPROVAL_DATE_TIME ( #214, #61 ) ;
#28 = AXIS2_PLACEMENT_3D ( 'NONE', #168, #233, #22 ) ;
#29 = ORIENTED_EDGE ( 'NONE', *, *, #64, .F. ) ;
#30 = AXIS2_PLACEMENT_3D ( 'NONE', #67, #7, #251 ) ;
#31 = ADVANCED_FACE ( 'NONE', ( #19, #186 ), #82, .T. ) ;
#32 = CC_DESIGN_APPROVAL ( #61, ( #69 ) ) ;
#33 = ORIENTED_EDGE ( 'NONE', *, *, #18, .T. ) ;
#34 = CYLINDRICAL_SURFACE ( 'NONE', #193, 12.00000000000000178 ) ;
#35 = ORIENTED_EDGE ( 'NONE', *, *, #236, .F. ) ;
#36 = EDGE_LOOP ( 'NONE', ( #88, #79, #132, #143 ) ) ;
#37 = PERSON_AND_ORGANIZATION_ROLE ( 'creator' ) ;
#38 =( NAMED_UNIT ( * ) PLANE_ANGLE_UNIT ( ) SI_UNIT ( $, .RADIAN. ) );
#39 = PERSON_AND_ORGANIZATION ( #196, #4 ) ;
#40 = CARTESIAN_POINT ( 'NONE',  ( 0.000000000000000000, 0.000000000000000000, 7.000000000000000000 ) ) ;
#41 = PLANE ( 'NONE',  #210 ) ;
#42 = ORIENTED_EDGE ( 'NONE', *, *, #223, .F. ) ;
#43 = EDGE_CURVE ( 'NONE', #55, #80, #144, .T. ) ;
#44 = DIRECTION ( 'NONE',  ( 1.000000000000000000, 0.000000000000000000, 0.000000000000000000 ) ) ;
#45 = FACE_OUTER_BOUND ( 'NONE', #36, .T. ) ;
#46 = EDGE_LOOP ( 'NONE', ( #111, #94, #138, #215 ) ) ;
#47 = CARTESIAN_POINT ( 'NONE',  ( 0.000000000000000000, 0.000000000000000000, 200.0000000000000000 ) ) ;
#48 = CC_DESIGN_APPROVAL ( #162, ( #49 ) ) ;
#49 = PRODUCT_DEFINITION ( 'NEZNÁMÝ', '', #69, #96 ) ;
#50 = DIRECTION ( 'NONE',  ( 0.000000000000000000, 0.000000000000000000, 1.000000000000000000 ) ) ;
#51 = ORIENTED_EDGE ( 'NONE', *, *, #115, .T. ) ;
#52 = AXIS2_PLACEMENT_3D ( 'NONE', #175, #174, #161 ) ;
#53 = ADVANCED_FACE ( 'NONE', ( #89 ), #92, .T. ) ;
#54 = CIRCLE ( 'NONE', #30, 12.00000000000000178 ) ;
#55 = VERTEX_POINT ( 'NONE', #16 ) ;
#56 = PERSON_AND_ORGANIZATION_ROLE ( 'classification_officer' ) ;
#57 = ADVANCED_BREP_SHAPE_REPRESENTATION ( 'd575', ( #171, #163 ), #159 ) ;
#58 = APPLICATION_CONTEXT ( 'configuration controlled 3d designs of mechanical parts and assemblies' ) ;
#59 = APPROVAL_DATE_TIME ( #167, #162 ) ;
#60 = VERTEX_POINT ( 'NONE', #180 ) ;
#61 = APPROVAL ( #17, 'NEURÈENÝ' ) ;
#62 = VECTOR ( 'NONE', #98, 1000.000000000000000 ) ;
#63 = CARTESIAN_POINT ( 'NONE',  ( 12.00000000000000178, 1.469576158976824144E-15, 0.000000000000000000 ) ) ;
#64 = EDGE_CURVE ( 'NONE', #221, #124, #238, .T. ) ;
#65 = LINE ( 'NONE', #202, #226 ) ;
#66 = DIRECTION ( 'NONE',  ( -0.000000000000000000, -0.000000000000000000, -1.000000000000000000 ) ) ;
#67 = CARTESIAN_POINT ( 'NONE',  ( 0.000000000000000000, 0.000000000000000000, 7.000000000000000000 ) ) ;
#68 = EDGE_LOOP ( 'NONE', ( #192, #135 ) ) ;
#69 = PRODUCT_DEFINITION_FORMATION_WITH_SPECIFIED_SOURCE ( 'LIBOVOLNÝ', '', #165, .NOT_KNOWN. ) ;
#70 = APPLICATION_PROTOCOL_DEFINITION ( 'international standard', 'config_control_design', 1994, #58 ) ;
#71 = DATE_AND_TIME ( #158, #150 ) ;
#72 = DIRECTION ( 'NONE',  ( -1.000000000000000000, 0.000000000000000000, 0.000000000000000000 ) ) ;
#73 = LINE ( 'NONE', #86, #155 ) ;
#74 = ORIENTED_EDGE ( 'NONE', *, *, #43, .T. ) ;
#75 = CC_DESIGN_PERSON_AND_ORGANIZATION_ASSIGNMENT ( #9, #90, ( #49 ) ) ;
#76 = AXIS2_PLACEMENT_3D ( 'NONE', #209, #227, #20 ) ;
#77 = LOCAL_TIME ( 10, 44, 15.00000000000000000, #179 ) ;
#78 = PERSON_AND_ORGANIZATION ( #196, #4 ) ;
#79 = ORIENTED_EDGE ( 'NONE', *, *, #189, .T. ) ;
#80 = VERTEX_POINT ( 'NONE', #178 ) ;
#81 = PERSON_AND_ORGANIZATION ( #196, #4 ) ;
#82 = PLANE ( 'NONE',  #28 ) ;
#83 = AXIS2_PLACEMENT_3D ( 'NONE', #134, #211, #110 ) ;
#84 = DIRECTION ( 'NONE',  ( 0.000000000000000000, 0.000000000000000000, 1.000000000000000000 ) ) ;
#85 = DIRECTION ( 'NONE',  ( 1.000000000000000000, 0.000000000000000000, -0.000000000000000000 ) ) ;
#86 = CARTESIAN_POINT ( 'NONE',  ( -8.000000000000000000, 0.000000000000000000, 200.0000000000000000 ) ) ;
#87 = DIRECTION ( 'NONE',  ( 1.000000000000000000, 0.000000000000000000, 0.000000000000000000 ) ) ;
#88 = ORIENTED_EDGE ( 'NONE', *, *, #253, .F. ) ;
#89 = FACE_OUTER_BOUND ( 'NONE', #126, .T. ) ;
#90 = PERSON_AND_ORGANIZATION_ROLE ( 'creator' ) ;
#91 = EDGE_LOOP ( 'NONE', ( #74, #242 ) ) ;
#92 = CYLINDRICAL_SURFACE ( 'NONE', #52, 12.00000000000000178 ) ;
#93 = CC_DESIGN_SECURITY_CLASSIFICATION ( #231, ( #69 ) ) ;
#94 = ORIENTED_EDGE ( 'NONE', *, *, #64, .T. ) ;
#95 = SECURITY_CLASSIFICATION_LEVEL ( 'unclassified' ) ;
#96 = DESIGN_CONTEXT ( 'detailed design', #130, 'design' ) ;
#97 = AXIS2_PLACEMENT_3D ( 'NONE', #47, #50, #116 ) ;
#98 = DIRECTION ( 'NONE',  ( -0.000000000000000000, -0.000000000000000000, -1.000000000000000000 ) ) ;
#99 = APPROVAL_PERSON_ORGANIZATION ( #39, #162, #217 ) ;
#100 = ADVANCED_FACE ( 'NONE', ( #120 ), #34, .T. ) ;
#101 = ORIENTED_EDGE ( 'NONE', *, *, #189, .F. ) ;
#102 = CARTESIAN_POINT ( 'NONE',  ( 0.000000000000000000, 0.000000000000000000, 7.000000000000000000 ) ) ;
#103 = ORIENTED_EDGE ( 'NONE', *, *, #3, .F. ) ;
#104 = DIRECTION ( 'NONE',  ( 0.000000000000000000, 0.000000000000000000, 1.000000000000000000 ) ) ;
#105 = CALENDAR_DATE ( 2023, 13, 2 ) ;
#106 = CARTESIAN_POINT ( 'NONE',  ( 0.000000000000000000, 0.000000000000000000, 0.000000000000000000 ) ) ;
#107 = PERSON_AND_ORGANIZATION ( #196, #4 ) ;
#108 = DIRECTION ( 'NONE',  ( 1.000000000000000000, 0.000000000000000000, 0.000000000000000000 ) ) ;
#109 = CC_DESIGN_DATE_AND_TIME_ASSIGNMENT ( #71, #137, ( #49 ) ) ;
#110 = DIRECTION ( 'NONE',  ( 1.000000000000000000, 0.000000000000000000, 0.000000000000000000 ) ) ;
#111 = ORIENTED_EDGE ( 'NONE', *, *, #164, .F. ) ;
#112 = AXIS2_PLACEMENT_3D ( 'NONE', #131, #206, #25 ) ;
#113 = CARTESIAN_POINT ( 'NONE',  ( 0.000000000000000000, 0.000000000000000000, 7.000000000000000000 ) ) ;
#114 = VERTEX_POINT ( 'NONE', #156 ) ;
#115 = EDGE_CURVE ( 'NONE', #212, #124, #125, .T. ) ;
#116 = DIRECTION ( 'NONE',  ( 1.000000000000000000, 0.000000000000000000, 0.000000000000000000 ) ) ;
#117 = PERSON_AND_ORGANIZATION ( #196, #4 ) ;
#118 =( LENGTH_UNIT ( ) NAMED_UNIT ( * ) SI_UNIT ( .MILLI., .METRE. ) );
#119 = CARTESIAN_POINT ( 'NONE',  ( 12.00000000000000178, 1.469576158976824144E-15, 7.000000000000000000 ) ) ;
#120 = FACE_OUTER_BOUND ( 'NONE', #46, .T. ) ;
#121 = EDGE_LOOP ( 'NONE', ( #103, #42 ) ) ;
#122 = COORDINATED_UNIVERSAL_TIME_OFFSET ( 1, 0, .AHEAD. ) ;
#123 = APPROVAL ( #184, 'NEURÈENÝ' ) ;
#124 = VERTEX_POINT ( 'NONE', #63 ) ;
#125 = CIRCLE ( 'NONE', #76, 12.00000000000000178 ) ;
#126 = EDGE_LOOP ( 'NONE', ( #29, #35, #33, #51 ) ) ;
#127 = CARTESIAN_POINT ( 'NONE',  ( -12.00000000000000178, 0.000000000000000000, 7.000000000000000000 ) ) ;
#128 = DIRECTION ( 'NONE',  ( 0.000000000000000000, 0.000000000000000000, 1.000000000000000000 ) ) ;
#129 = FACE_OUTER_BOUND ( 'NONE', #91, .T. ) ;
#130 = APPLICATION_CONTEXT ( 'configuration controlled 3d designs of mechanical parts and assemblies' ) ;
#131 = CARTESIAN_POINT ( 'NONE',  ( 0.000000000000000000, 0.000000000000000000, 200.0000000000000000 ) ) ;
#132 = ORIENTED_EDGE ( 'NONE', *, *, #223, .T. ) ;
#133 = ADVANCED_FACE ( 'NONE', ( #240 ), #41, .F. ) ;
#134 = CARTESIAN_POINT ( 'NONE',  ( 0.000000000000000000, 0.000000000000000000, 200.0000000000000000 ) ) ;
#135 = ORIENTED_EDGE ( 'NONE', *, *, #203, .F. ) ;
#136 = CIRCLE ( 'NONE', #14, 12.00000000000000178 ) ;
#137 = DATE_TIME_ROLE ( 'creation_date' ) ;
#138 = ORIENTED_EDGE ( 'NONE', *, *, #203, .T. ) ;
#139 = LOCAL_TIME ( 10, 44, 15.00000000000000000, #5 ) ;
#140 = ADVANCED_FACE ( 'NONE', ( #129 ), #229, .T. ) ;
#141 = CALENDAR_DATE ( 2023, 13, 2 ) ;
#142 = CALENDAR_DATE ( 2023, 13, 2 ) ;
#143 = ORIENTED_EDGE ( 'NONE', *, *, #249, .F. ) ;
#144 = CIRCLE ( 'NONE', #97, 8.000000000000000000 ) ;
#145 = DATE_TIME_ROLE ( 'classification_date' ) ;
#146 = PERSON_AND_ORGANIZATION_ROLE ( 'design_supplier' ) ;
#147 = CC_DESIGN_PERSON_AND_ORGANIZATION_ASSIGNMENT ( #117, #146, ( #69 ) ) ;
#148 = SHAPE_DEFINITION_REPRESENTATION ( #198, #57 ) ;
#149 = PERSON_AND_ORGANIZATION_ROLE ( 'design_owner' ) ;
#150 = LOCAL_TIME ( 10, 44, 15.00000000000000000, #250 ) ;
#151 = APPROVAL_ROLE ( '' ) ;
#152 = CC_DESIGN_PERSON_AND_ORGANIZATION_ASSIGNMENT ( #254, #56, ( #231 ) ) ;
#153 = DIRECTION ( 'NONE',  ( 0.000000000000000000, 0.000000000000000000, 1.000000000000000000 ) ) ;
#154 = DIRECTION ( 'NONE',  ( 1.000000000000000000, 0.000000000000000000, 0.000000000000000000 ) ) ;
#155 = VECTOR ( 'NONE', #173, 1000.000000000000000 ) ;
#156 = CARTESIAN_POINT ( 'NONE',  ( -8.000000000000000000, 0.000000000000000000, 7.000000000000000000 ) ) ;
#157 = DIRECTION ( 'NONE',  ( -1.000000000000000000, 0.000000000000000000, 0.000000000000000000 ) ) ;
#158 = CALENDAR_DATE ( 2023, 13, 2 ) ;
#159 =( GEOMETRIC_REPRESENTATION_CONTEXT ( 3 ) GLOBAL_UNCERTAINTY_ASSIGNED_CONTEXT ( ( #220 ) ) GLOBAL_UNIT_ASSIGNED_CONTEXT ( ( #118, #38, #183 ) ) REPRESENTATION_CONTEXT ( 'NONE', 'WORKASPACE' ) );
#160 = ORIENTED_EDGE ( 'NONE', *, *, #164, .T. ) ;
#161 = DIRECTION ( 'NONE',  ( -1.000000000000000000, 0.000000000000000000, 0.000000000000000000 ) ) ;
#162 = APPROVAL ( #234, 'NEURÈENÝ' ) ;
#163 = AXIS2_PLACEMENT_3D ( 'NONE', #8, #104, #108 ) ;
#164 = EDGE_CURVE ( 'NONE', #221, #60, #136, .T. ) ;
#165 = PRODUCT ( 'd575', 'd575', '', ( #185 ) ) ;
#166 = APPROVAL_ROLE ( '' ) ;
#167 = DATE_AND_TIME ( #182, #181 ) ;
#168 = CARTESIAN_POINT ( 'NONE',  ( 0.000000000000000000, 0.000000000000000000, 7.000000000000000000 ) ) ;
#169 = CIRCLE ( 'NONE', #235, 12.00000000000000178 ) ;
#170 = CARTESIAN_POINT ( 'NONE',  ( 8.000000000000000000, 9.797174393178825657E-16, 7.000000000000000000 ) ) ;
#171 = MANIFOLD_SOLID_BREP ( 'Pøidat vysunutím3', #176 ) ;
#172 = CYLINDRICAL_SURFACE ( 'NONE', #237, 8.000000000000000000 ) ;
#173 = DIRECTION ( 'NONE',  ( -0.000000000000000000, -0.000000000000000000, -1.000000000000000000 ) ) ;
#174 = DIRECTION ( 'NONE',  ( -0.000000000000000000, -0.000000000000000000, -1.000000000000000000 ) ) ;
#175 = CARTESIAN_POINT ( 'NONE',  ( 0.000000000000000000, 0.000000000000000000, 7.000000000000000000 ) ) ;
#176 = CLOSED_SHELL ( 'NONE', ( #195, #100, #53, #31, #133, #10, #140 ) ) ;
#177 = COORDINATED_UNIVERSAL_TIME_OFFSET ( 1, 0, .AHEAD. ) ;
#178 = CARTESIAN_POINT ( 'NONE',  ( 8.000000000000000000, 9.797174393178825657E-16, 200.0000000000000000 ) ) ;
#179 = COORDINATED_UNIVERSAL_TIME_OFFSET ( 1, 0, .AHEAD. ) ;
#180 = CARTESIAN_POINT ( 'NONE',  ( -12.00000000000000178, 0.000000000000000000, 7.000000000000000000 ) ) ;
#181 = LOCAL_TIME ( 10, 44, 15.00000000000000000, #122 ) ;
#182 = CALENDAR_DATE ( 2023, 13, 2 ) ;
#183 =( NAMED_UNIT ( * ) SI_UNIT ( $, .STERADIAN. ) SOLID_ANGLE_UNIT ( ) );
#184 = APPROVAL_STATUS ( 'not_yet_approved' ) ;
#185 = MECHANICAL_CONTEXT ( 'NONE', #58, 'mechanical' ) ;
#186 = FACE_OUTER_BOUND ( 'NONE', #222, .T. ) ;
#187 = DIRECTION ( 'NONE',  ( 1.000000000000000000, 0.000000000000000000, -0.000000000000000000 ) ) ;
#188 = DIRECTION ( 'NONE',  ( 1.000000000000000000, 0.000000000000000000, 0.000000000000000000 ) ) ;
#189 = EDGE_CURVE ( 'NONE', #80, #194, #65, .T. ) ;
#190 = DIRECTION ( 'NONE',  ( -0.000000000000000000, -0.000000000000000000, -1.000000000000000000 ) ) ;
#191 = CARTESIAN_POINT ( 'NONE',  ( 0.000000000000000000, 0.000000000000000000, 200.0000000000000000 ) ) ;
#192 = ORIENTED_EDGE ( 'NONE', *, *, #115, .F. ) ;
#193 = AXIS2_PLACEMENT_3D ( 'NONE', #102, #248, #72 ) ;
#194 = VERTEX_POINT ( 'NONE', #170 ) ;
#195 = ADVANCED_FACE ( 'NONE', ( #45 ), #241, .T. ) ;
#196 = PERSON ( 'NEURÈENÝ', 'NEURÈENÝ', 'NEURÈENÝ', ('NEURÈENÝ'), ('NEURÈENÝ'), ('NEURÈENÝ') ) ;
#197 = DATE_AND_TIME ( #141, #199 ) ;
#198 = PRODUCT_DEFINITION_SHAPE ( 'NONE', 'NONE',  #49 ) ;
#199 = LOCAL_TIME ( 10, 44, 15.00000000000000000, #177 ) ;
#200 = LINE ( 'NONE', #127, #255 ) ;
#201 = CC_DESIGN_PERSON_AND_ORGANIZATION_ASSIGNMENT ( #81, #149, ( #165 ) ) ;
#202 = CARTESIAN_POINT ( 'NONE',  ( 8.000000000000000000, 9.797174393178825657E-16, 200.0000000000000000 ) ) ;
#203 = EDGE_CURVE ( 'NONE', #124, #212, #169, .T. ) ;
#204 = CIRCLE ( 'NONE', #23, 8.000000000000000000 ) ;
#205 = CARTESIAN_POINT ( 'NONE',  ( 0.000000000000000000, 0.000000000000000000, 7.000000000000000000 ) ) ;
#206 = DIRECTION ( 'NONE',  ( -0.000000000000000000, -0.000000000000000000, -1.000000000000000000 ) ) ;
#207 = CARTESIAN_POINT ( 'NONE',  ( 12.00000000000000178, 1.469576158976824144E-15, 7.000000000000000000 ) ) ;
#208 = ORIENTED_EDGE ( 'NONE', *, *, #43, .F. ) ;
#209 = CARTESIAN_POINT ( 'NONE',  ( 0.000000000000000000, 0.000000000000000000, 0.000000000000000000 ) ) ;
#210 = AXIS2_PLACEMENT_3D ( 'NONE', #106, #153, #187 ) ;
#211 = DIRECTION ( 'NONE',  ( 0.000000000000000000, 0.000000000000000000, 1.000000000000000000 ) ) ;
#212 = VERTEX_POINT ( 'NONE', #230 ) ;
#213 = EDGE_LOOP ( 'NONE', ( #101, #208, #2, #246 ) ) ;
#214 = DATE_AND_TIME ( #142, #139 ) ;
#215 = ORIENTED_EDGE ( 'NONE', *, *, #18, .F. ) ;
#216 = APPROVAL_PERSON_ORGANIZATION ( #218, #61, #166 ) ;
#217 = APPROVAL_ROLE ( '' ) ;
#218 = PERSON_AND_ORGANIZATION ( #196, #4 ) ;
#219 = CC_DESIGN_DATE_AND_TIME_ASSIGNMENT ( #197, #145, ( #231 ) ) ;
#220 = UNCERTAINTY_MEASURE_WITH_UNIT (LENGTH_MEASURE( 1.000000000000000082E-05 ), #118, 'distance_accuracy_value', 'NONE');
#221 = VERTEX_POINT ( 'NONE', #207 ) ;
#222 = EDGE_LOOP ( 'NONE', ( #224, #160 ) ) ;
#223 = EDGE_CURVE ( 'NONE', #194, #114, #204, .T. ) ;
#224 = ORIENTED_EDGE ( 'NONE', *, *, #236, .T. ) ;
#225 = APPLICATION_PROTOCOL_DEFINITION ( 'international standard', 'config_control_design', 1994, #130 ) ;
#226 = VECTOR ( 'NONE', #232, 1000.000000000000000 ) ;
#227 = DIRECTION ( 'NONE',  ( 0.000000000000000000, 0.000000000000000000, 1.000000000000000000 ) ) ;
#228 = APPROVAL_DATE_TIME ( #1, #123 ) ;
#229 = PLANE ( 'NONE',  #239 ) ;
#230 = CARTESIAN_POINT ( 'NONE',  ( -12.00000000000000178, 0.000000000000000000, 0.000000000000000000 ) ) ;
#231 = SECURITY_CLASSIFICATION ( '', '', #95 ) ;
#232 = DIRECTION ( 'NONE',  ( -0.000000000000000000, -0.000000000000000000, -1.000000000000000000 ) ) ;
#233 = DIRECTION ( 'NONE',  ( 0.000000000000000000, 0.000000000000000000, 1.000000000000000000 ) ) ;
#234 = APPROVAL_STATUS ( 'not_yet_approved' ) ;
#235 = AXIS2_PLACEMENT_3D ( 'NONE', #11, #26, #188 ) ;
#236 = EDGE_CURVE ( 'NONE', #60, #221, #54, .T. ) ;
#237 = AXIS2_PLACEMENT_3D ( 'NONE', #244, #66, #157 ) ;
#238 = LINE ( 'NONE', #119, #62 ) ;
#239 = AXIS2_PLACEMENT_3D ( 'NONE', #191, #84, #85 ) ;
#240 = FACE_OUTER_BOUND ( 'NONE', #68, .T. ) ;
#241 = CYLINDRICAL_SURFACE ( 'NONE', #112, 8.000000000000000000 ) ;
#242 = ORIENTED_EDGE ( 'NONE', *, *, #253, .T. ) ;
#243 = CIRCLE ( 'NONE', #252, 8.000000000000000000 ) ;
#244 = CARTESIAN_POINT ( 'NONE',  ( 0.000000000000000000, 0.000000000000000000, 200.0000000000000000 ) ) ;
#245 = DIRECTION ( 'NONE',  ( 0.000000000000000000, 0.000000000000000000, 1.000000000000000000 ) ) ;
#246 = ORIENTED_EDGE ( 'NONE', *, *, #3, .T. ) ;
#247 = CIRCLE ( 'NONE', #83, 8.000000000000000000 ) ;
#248 = DIRECTION ( 'NONE',  ( -0.000000000000000000, -0.000000000000000000, -1.000000000000000000 ) ) ;
#249 = EDGE_CURVE ( 'NONE', #55, #114, #73, .T. ) ;
#250 = COORDINATED_UNIVERSAL_TIME_OFFSET ( 1, 0, .AHEAD. ) ;
#251 = DIRECTION ( 'NONE',  ( 1.000000000000000000, 0.000000000000000000, 0.000000000000000000 ) ) ;
#252 = AXIS2_PLACEMENT_3D ( 'NONE', #205, #24, #87 ) ;
#253 = EDGE_CURVE ( 'NONE', #80, #55, #247, .T. ) ;
#254 = PERSON_AND_ORGANIZATION ( #196, #4 ) ;
#255 = VECTOR ( 'NONE', #190, 1000.000000000000000 ) ;
ENDSEC;
END-ISO-10303-21;
